Oops, an error
Loading. Please wait.

Cubicles bass

version 1
version 1

Whole song

Interactive

3,456 views 6 this week
1 commentread comment
1 2 3 4 5
x 7
add to favorites
×
Save as Personal and add changes to this tab that will be seen only by you. Learn more ›
×
You can save this tab as Personal to edit and correct it or add notes. All changes will be seen only by you. Learn more »
launch autoscroll
font size
0
reset
guitar tuner
edit
Autoscroll
slow
fast
+/-
esc
set tempo
stop
Author
===============================================================================
Cubicles - My Chemical Romance
===============================================================================

Origionally tabbed by Tyler

Song: Cubicles
Artist: My Chemical Romance
Album: I Brought You My Bullets, You Brought Me Your Love
Tuning: Standard


~ = Let Ring


Bass comes in at 00:09 with

G ---------|
D ---------|
A ---------|
E -444-2222

G --------------------------------|
D --------------------------------|
A -------------------------111-22-|
E -0000000-2222222-4444444--------|

G --------------------------------|
D --------------------------------|
A -----------------1111111-222-1~-|
E -0000000-2222222----------------|

G --------------------------------|
D --------------------------------|
A -------------------------111-22-|
E -0000000-2222222-4444444--------|

G --------------------------------|
D --------------------------------|
A -----------------2222222-111----|
E -0000000-2222222-------------44-|

G ------------------------------------------|
D ------------------------------------------|
A ----1~-22222222-11111111------------------|
E -0~----------------------4444444444444444-|

G ---------------------------------------|
D ---------------------------------------|
A ----1~-2-2-2-2-4-4-4-4-----------------|
E -0~--------------------4-4-4-4--22--44-|

G ---------------------------------------|
D ---------------------------------------|
A ----1~-22222222-11111111-------0-2-1---|
E -0~----------------------44444-------4-|

G --------------------------------|
D --------------------------------|
A -------------------------111-22-|
E -0000000-2222222-4444444--------|

G --------------------------------|
D --------------------------------|
A -----------------2222222-111----|
E -0000000-2222222-------------44-|

G --------------------------------|
D --------------------------------|
A -------------------------111-22-|
E -0000000-2222222-4444444--------|

G --------------------------------|
D --------------------------------|
A -----------------1111111-222-1~-|
E -0000000-2222222----------------|

G --------------------------------|
D --------------------------------|
A -------------------------111-22-|
E -0000000-2222222-4444444--------|

G --------------------------------|
D --------------------------------|
A -----------------2222222-111----|
E -0000000-2222222-------------44-|

G ------------------------------------------|
D ------------------------------------------|
A ----1~-22222222-11111111------------------|
E -0~----------------------4444444444444444-|

G ---------------------------------------|
D ---------------------------------------|
A ----1~-2-2-2-2-4-4-4-4-----------------|
E -0~--------------------4-4-4-4--22--44-|

G ---------------------------------------|
D ---------------------------------------|
A ----1~-22222222-11111111-------0-2-1---|
E -0~----------------------44444-------4-|

   P
G --A----|
D ---U---|
A ----S--|  Until 02:05
E -----E-|

G -----8---8-6-8----|
D ---9---9-------9~-|
A -7----------------|
E ------------------|

G -----8---11-8-9-8~-|
D ---9---9-----------|
A -7-----------------|
E -------------------|

G ---------------------------------|
D ---------------------------------|
A ---------------------------------|
E -0000000-2222222-4444444-444--22-|

G ---------------------------------|
D ---------------------------------|
A ---------------------------------|
E -0000000-2222222-4444444-444--22-|

G ---------------------------------|
D ---------------------------------|
A ---------------------------------|
E -0000000-2222222-4444444-444--22-|

G ---------------------------------|
D ---------------------------------|
A -------------------------2222222-|
E -0000000-2222222-4444444---------|

G ----------------------------|
D ----------------------------|
A ----------------------------|  (x4)
E 0000000222222244444444444444

G ----------------------------|
D ----------------------------|
A -----------------------21---|
E 00000-22--2-44444~-------20-|

G ------------------------|
D ------------------------|
A -------------------2--2-|
E 00000-22--2-44444-------|

G ----------------------------|
D ----------------------------|
A -----------------------21---|
E 00000-22--2-44444~-------20-|

G ------------------------|
D ------------------------|
A -------------------2--2-|
E 00000-22--2-44444-------|

G ----------------------------|
D ----------------------------|
A ----------------------------|  (x3)
E 00000~-22222~-44444~-44444~-|

G ----------------------------|
D ----------------------------|
A ----------------------------|
E 00000~-22222~-44444~--------|

  P
G -A----
D --U---
A ---S-- until 03:35
E ----E-

G -----------------|
D -----------------|
A -----------------|
E 44---44---4-2-0~-|

=============================================================================

            
            
Suggest correction
Creating personal tab
Creating personal tab
You can edit any tab online and save it as your Personal.

You can edit, replace or remove any tab part or add personal notes – all changes will be seen only by you.

Personal tabs can be accessed anytime from any device, even offline.
Learn more »
comments
print report bad tab
1 comment total.
0 reply
mechraofficial 10 Apr 30, 2016 06:16 PM

G -----8---9-8-9----|
D ---9---9-------9~-|
A -7----------------|
E ------------------|

G -----8---11-8-9-8~-|
D ---9---9-----------|
A -7-----------------|
E -------------------|

Sick tab, found this correction and a couple of others I will post soon, I love this track.

guest
You may want to rate the tab now too:
select rating
Wanna post a correction for this tab? Suggest correction