Oops, an error
Loading. Please wait.

Cubicles Tab

version 1
version 1

Whole song

Interactive

13,510 views 42 this week
13 commentsread comments
1 2 3 4 5
accurate
x 8
add to favorites
launch autoscroll
font size
0
reset
how to read this tab
guitar tuner
Tab Pro tools
  • play this tab
  • loop segment
  • change instrument
  • show fretboard
  • metronome
Autoscroll
slow
fast
+/-
esc
set tempo
stop
Contributor
Song: Cubicles
Band: My Chemical Romance
Album: I Brought You My Bullets, You Brought Me Your Love

Gtr I: Frank Iero: Standard Tuning (e,B,G,D,A,E)
Gtr II: Ray Toro: Standard Tuning (e,B,G,D,A,E)

Key:

x:- String Mute
*:- Palm Mute
/:- Slide
h:- Hammer On
p:- Pull Off

Intro

Gtr I

e:|-----------------------------------|
B:|-----------------------------------|
G:|---6666-44--666666-888888--999-888-|
D:|---xxxx-xx--xxxxxx-xxxxxx--xxx-xxx-|
A:|-0-4444-22--444444-666666--777-666-|
E:|-----------------------------------|
PM  *

e:|--------------------------------|
B:|--------------------------------|
G:|-6666-44--666666--4444--555-666-|
D:|-xxxx-xx--xxxxxx--xxxx--xxx-xxx-|
A:|-4444-22--444444--2222--333-444-|
E:|--------------------------------|


Verses (Repeat whole thing twice)

Both Gtr's

e:|---------------------------------|
B:|---------------------------------|
G:|-6666-44--666666-888888--999-888-|
D:|-xxxx-xx--xxxxxx-xxxxxx--xxx-xxx-|
A:|-4444-22--444444-666666--777-666-|
E:|---------------------------------|


e:|---------------------------------|
B:|---------------------------------|
G:|-6666-44--666666-11111111--66-88-|  
D:|-xxxx-xx--xxxxxx-x-x-x-x---xx-xx-|
A:|-4444-22--444444-9-9-9-9---44-66-|
E:|---------------------------------|


Pre-Chorus
e:|-----------------------|
B:|-----------------------|
G:|-----------------------|
D:|-2~-2-2222--8~-8-88-88-|
A:|-2~-2-2222--8~-8-88-88-|
E:|-0~-0-0000--6~-6-66-66-|
PM                     **


Chorus (Both Gtr's)
e:|---------------------------------------|
B:|---------------------------------------|
G:|---------------------------------------|    
D:|-999999999-777777777-66666666666666666-|    
A:|-999999999-777777777-66666666666666666-|
E:|-777777777-555555555-44444444444444444-|


e:|-----------------------|
B:|-----------------------|
G:|-----------------------|
D:|-2~-2-2222--8~-8-88-88-|
A:|-2~-2-2222--8~-8-88-88-|
E:|-0~-0-0000--6~-6-66-66-|
PM                     **

e:|-----------------------------------------------|
B:|-----------------------------------------------|
G:|-----------999999999-------------------666-888-|    
D:|-999999999-xxxxxxxxx-66666666666666666-xxx-xxx-|    
A:|-999999999-777777777-66666666666666666-444-666-|
E:|-777777777-----------44444444444444444---------|

e:|-----------------------|
B:|-----------------------|
G:|-----------------------|
D:|-2~-2-2222--8~-8-88-88-|
A:|-2~-2-2222--8~-8-88-88-|
E:|-0~-0-0000--6~-6-66-66-|
PM                     **

e:|---------------------------------------|
B:|---------------------------------------|
G:|---------------------------------------|    
D:|-999999999-777777777-66666666666666666-|    
A:|-999999999-777777777-66666666666666666-|
E:|-777777777-555555555-44444444444444444-|

Repeat Verses

Repeat Pre-Chorus

Repeat Chorus


Bridge

Gtr I

e:|------------------------------------|
B:|------------------------------------|
G:|------------------------------------|        
D:|-99999999-44444444-6666666666666666-| 
A:|------------------------------------|
E:|------------------------------------|
PM  ******** ******** ****************

After Gtr I Has played the above once

Gtr II

e:|-------------------------------------|
B:|-------------------------------------|
G:|-------------------------------------|
D:|-------------------------------------|
A:|-77777777-22222222-44444444444444444-|
E:|-------------------------------------|  
PM  ******** ******** *****************

Gtr I

e:|-----------------------------------------------|
B:|-----------------------------------------8h9p8-|
G:|-99999-8--99999-8--99999-8--99999-8--999-------|
D:|-xxxxx-x--xxxxx-x--xxxxx-x--xxxxx-x--xxx-------|   
A:|-77777-6--77777-6--77777-6--77777-6--777-------|
E:|-----------------------------------------------|

Gtr II

e:|------------------------------------|
B:|------------------------------------|
G:|-99999999-44444444-6666666666666666-|
D:|-99999999-44444444-6666666666666666-|
A:|-77777777-22222222-4444444444444444-|
E:|------------------------------------|

Outro

Gtr I

e:|-----------------------------|
B:|-----------------------------|
G:|---------------------------8-|
D:|-2222-2-4444-4-6666-6-9999-9-|
A:|-2222-2-4444-4-6666-6-6666-6-|
E:|-0000-0-2222-2-4444-4--------|
PM  ****   ****   ****   ****


Gtr II

e:|--------------------------------------|
B:|-----------------------------9h11p9/8-|
G:|--------------------------------------|
D:|-2222-2-4444-4-6666-6-99-9-9----------|
A:|-2222-2-4444-4-6666-6-66-6-6----------|
E:|-0000-0-2222-2-4444-4-----------------|
PM  ****   ****   ****   **   *
                                      
After Gtr II Has played the above twice it changes to this

e:|-12---12---11---11----|
B:|---10---10----12---12-|
G:|----------------------|
D:|----------------------| (x8)
A:|----------------------|
E:|----------------------|

Last part of outro

Gtr I

e:|-----------------------------|
B:|-----------------------------|
G:|---------------------------8-|
D:|-2222-2-4444-4-6666-6-9999-9-|
A:|-2222-2-4444-4-6666-6-6666-6-|
E:|-0000-0-2222-2-4444-4--------|
PM  ****   ****   ****   ****

e:|---------------|
B:|---------------|
G:|---------------|
D:|-2222-2-4444-4-|
A:|-2222-2-4444-4-|
E:|-0000-0-2222-2-|
PM  ****   ****

End with

Both Gtr's

e:|-----------------|
B:|-----------------|
G:|-----------------|
D:|-66-66-666-2~~~~-|
A:|-66-66-666-2~~~~-|
E:|-44-44-444-0~~~~-|
PM        ***
comments
print report bad tab
13 comments total. Showing first comments.
-1 reply
stumaster18 wrote on June 17 2005, 12:00 am

chorus wrong, pre chorus wrong, outro parts wrong, slow parts wrong. why drop D? no need for it. improvement is needed.

0 reply
mcr_01_fan wrote on June 17 2005, 12:00 am

btw i forgot for the slow bit move it up one string sounds much better, and And I guess that i cant justify the fact that the pre chorus/chorus and outro are wrong i just screwed up with em, and i guess its in drop d coz thats how i prefer playing it, peace

0 reply
mcr_01_fan wrote on August 2 2005, 12:00 am

there, I'v edited it, I hope everyone is remoltley happy now. x

I want to post or [tab]
guest
You may want to rate the tab now too:
select rating
Please do not post tabs as comments. Select "correction" instead!