Oops, an error
Loading. Please wait.

Dead Tab

version 1
version 1
32,581 views 30 this week
1 commentread comment
1 2 3 4 5
excellent!
x 12
add to favorites
launch autoscroll
font size
0
reset
how to read this tab
guitar tuner
Autoscroll
slow
fast
+/-
esc
set tempo
stop
Help us to improve Ultimate-Guitar.com Take our survey!
×
Author
Difficulty
intermediate
e|:|------------------------------------------------------------------------|
B|:|----12--------12--------12--------12------12--------------15^(17)r15-12-|
G|:|----14^(16)---14^(16)---14^(16)---14^(16)-14^(16)r14-12~~---------------|
D|:|------------------------------------------------------------------------|
A|:|------------------------------------------------------------------------|
E|:|------------------------------------------------------------------------|

e|:|-15^(17)12h15p12h15--12-------------------12-14^(15)12h14p12h14---12----|
B|:|-------------------15--15^(17)-12h15p12h15----------------------15------|
G|:|------------------------------------------------------------------------|
D|:|------------------------------------------------------------------------|
A|:|------------------------------------------------------------------------|
E|:|------------------------------------------------------------------------|

e|:|-12-------12-------12-------------------------------------------------------|
B|:|-15^(17)--15^(17)--15^(17)---12h15p12---------------------------------------|
G|:|---------------------------------------14h15p14—12h14p12--14-12~~-----------|
D|:|--------------------------------------------------------12------------------|
A|:|----------------------------------------------------------------------------|
E|:|----------------------------------------------------------------------------|
Suggest correction
comments
print report bad tab
1 comment total.
0 reply
SGTCloudrunner 10 wrote on February 22 2013, 11:39 pm

It'll take me a bit to get it up to speed, but it seems 100% right. Nice job, this must've been tricky to figure out, haha

guest
You may want to rate the tab now too:
select rating
Wanna post a correction for this tab? Suggest correction