Oops, an error
Loading. Please wait.

Dead Tab

version 2
version 2

Solo

Whole song

29,696 views 27 this week
19 commentsread comments
1 2 3 4 5
excellent!
x 30
add to favorites
launch autoscroll
font size
0
reset
how to read this tab
guitar tuner
Autoscroll
slow
fast
+/-
esc
set tempo
stop
Help us to improve Ultimate-Guitar.com Take our survey!
×
Contributor
Difficulty
Tabbers playing skills
novice
advanced
This is the solo because the others i found were wrong (no offense, you got me started anyway)

e|-----------------------------------------------------------------------------|
b|-----------------------------------------------------------------------------|
g|--------4-5-7-7b--7p5h7---7/12-12-4h5p4p2h4p2p0h2p0--------------------------|
d|--5~--5---------------------------------------------2---4h5p4p2h4p2p0h2p0----|
a|-----------------------------------------------------3-----------------------|
e|--------------------------------------------------------------------------3--|

e|----------------------------3-----3----3----------------------7-----------7----|
b|-10-7----------------3---3-----3-----3----3---------------------8-------5---8--|
g|------8-5------------5b7-5b7---5b7---5b7--5b7--3h5-3b----h5h7-----4h5h7--------|
d|----------7-5-4----------------------------------------------------------------|
a|-------------------------------------------------------------------------------|
e|-------------------------------------------------------------------------------|

Two ways you can play this
e|--17p15----19p15----17p15----19p15----20p15----19p15----17p15----19p15--19p17p15--15--|
b|--------15-------15-------15-------15-------15-------15-------15------------------18b-|
g|--------------------------------------------------------------------------------------|
d|--------------------------------------------------------------------------------------|
a|--------------------------------------------------------------------------------------|
e|--------------------------------------------------------------------------------------|

                                        or
e|-t17p15p12-t19p15p12-t17p15p12-t19p15p12-t20p15p12-t19p15p12-t17p15p12-t19p15p12-19p17p15-15---|
b|------------------------------------------------------------------------------------------18b--|
g|-----------------------------------------------------------------------------------------------|
d|-----------------------------------------------------------------------------------------------|
a|-----------------------------------------------------------------------------------------------|
e|-----------------------------------------------------------------------------------------------|
comments
print report bad tab
19 comments total. Showing first comments.
-1 reply
Aceroth 414 wrote on November 17 2006, 01:48 pm

pretty good, only a few little errors. 4*

0 reply
stuart_cowan90 346 wrote on November 19 2006, 05:20 pm

yeah not bad at all, i'd say 4 stars for the tab and 1 star for no reason whatsoever, 5 stars dude!

-1 reply
ipe_yifei 17 wrote on December 5 2006, 07:01 am

so as stuart_cowan it'a
good tab 5 stars dude!!!

I want to post or [tab]
guest
You may want to rate the tab now too:
select rating
Please do not post tabs as comments. Select "correction" instead!