Oops, an error
Loading. Please wait.

Dead Tab

version 3
version 3

Solo

Whole song

32,595 views 6 this week
10 commentsread comments
1 2 3 4 5
accurate
x 13
add to favorites
launch autoscroll
font size
0
reset
how to read this tab
guitar tuner
Autoscroll
slow
fast
+/-
esc
set tempo
stop
Help us to improve Ultimate-Guitar.com Take our survey!
×
Contributor
Lentium 56
My Chemical Romance - Dead!  Bridge Solo
Tabbed by:  Lentium  (Lentium@gmail.com)
I'm aware that this is not 100% accurate, mostly refering to the 2nd quarter.
I did not refer to any other tabs when transcribing this.
You can watch me play this solo at http://www.youtube.com/watch?v=DH46o6wWT1E

e[------------------------------------------------------------------]
B[------------------------------------------------------------------]
G[--------------------------------------------------14--14~---------]
D[-------------9--10--12---12b14--r12p10-12~----12----------------9-]
A[-/10~-----10------------------------------------------------------]
E[------------------------------------------------------------------]
 
   Gtr 1.                   Gtr 2                 Gtr 1 & 2
[---------------------|-------------------|-------------------------]
[---------------------|-------------------|-------------------------]
[---------------------|-------------------|-14-11-------------------]
[h10p9p7h9p7/5h7p5----|7p5---5------------|-16-13-13-10-------------]
[-----------------h7p5|----7---7-5-7-5----|-------15-12-12-10-9~----]
[---------------------|----------------7-5|-------------14-12-11~---]
 
[-------------------------------------------------7--3----------7--3----10--]
[-3--3----3-3----3-3----3-3-----------------0h4h5---------0h4h5-------------]
[-0--5b7--0-5b7--0-5b7--0-5b7-r5p3-5-4~---3-------------3-------------------]
[---------------------------------------------------------------------------]
[---------------------------------------------------------------------------]
[---------------------------------------------------------------------------]

[-17p15----19p15----17p15----19p15----17p15----19p15----17p15----19p15---]
[-------15-------15-------15-------15-------15-------15-------15-------15]
[------------------------------------------------------------------------]
[------------------------------------------------------------------------]
[------------------------------------------------------------------------]
[------------------------------------------------------------------------]

[-20p15----19p15----17p15----19p15----17b19r17-15-15----15----15----15---\]
[-------15-------15-------15-------15-x-----------18b20-18b20-18b20-18b20\]
[-------------------------------------x-----------------------------------]
[-------------------------------------x-----------------------------------]
[-------------------------------------------------------------------------]
[-------------------------------------------------------------------------]



In the video I play the last 4 bars differently, so here's my prefered way: 

[t17p15p10t19p15p10t17p15p10t19p15p10t17p15p10t19p15p10t17p15p10t19p15p10]
[------------------------------------------------------------------------]
[------------------------------------------------------------------------]
[------------------------------------------------------------------------]
[------------------------------------------------------------------------]
[------------------------------------------------------------------------]

[t20p15p10t19p15p10t17p15p10t19p15p10-17b19r17-15-15----15----15----15---\]
[-------------------------------------x-----------18b20-18b20-18b20-18b20\]
[-------------------------------------x-----------------------------------]
[-------------------------------------x-----------------------------------]
[-------------------------------------------------------------------------]
[-------------------------------------------------------------------------]



Legend:
h = hammer-on
p = pull-off
t = tap with picking hand
b = bend
r = release bend
x = dead note
/ = slide up
\ = slide down
~ = vibrato (usually optional)

Tab written 100% in notepad
Suggest correction What's this?
You can suggest a correction to this tab. Community and Mods will review your correction and vote to approve or reject it.
comments
print report bad tab
10 comments total. Showing first comments.
0 reply
f1f2 3,681 wrote on November 20 2006, 06:15 am

hahaha very nice tab and nice video ^^,
btw on the video, that "merryphonic" is my bro's account... :)

0 reply
yatahaze 28 wrote on January 3 2007, 03:47 pm

not bad...not right either.

your tab is so cornfusing with the two guitar parts, i can't tell what's what.

0 reply
prettier_n_punk 91 wrote on January 31 2007, 05:29 pm

this is the best tab for the solo by far, and adding the video really helped. thanks

I want to post or [tab]
guest
You may want to rate the tab now too:
select rating
Please do not post tabs as comments. Select "correction" instead!