Oops, an error
Loading. Please wait.

Dead Tab

version 1
version 1
42,588 views 57 this week
7 commentsread comments
1 2 3 4 5
accurate
x 9
add to favorites
launch autoscroll
font size
0
reset
how to read this tab
guitar tuner
Autoscroll
slow
fast
+/-
esc
set tempo
stop
Help us to improve Ultimate-Guitar.com Take our survey!
×
Author
Difficulty
mcr_01_fan 1,127
intermediate
Song: Dead!
Band: My Chemical Romance
Album: The Black Parade

Gtr I: Ray Toro: Standard Tuning (e,B,G,D,A,E)
Gtr II: Frank Iero: Standard Tuning (e,B,G,D,A,E)

ntro Pt I:

Gtr I

e:|------------------------------|
B:|------------------------------|
G:|------------------------------|
D:|-5-5-5-5-5-5-44-5-5-5-5-5-5-5-|
A:|-5-5-5-5-5-5-44-5-5-5-5-5-5-5-|
E:|-3-3-3-3-3-3-22-3-3-3-3-3-3-3-|


Intro Pt II:

(I only have the rhythm here)

e:|-----------------------------------------------------------------|
B:|-----------------------------------------------------------------|
G:|---------------------------------------------------------7-8-7-5-|
D:|-5-5-5-5-5-5-5-5-4-4-4-4-4-4-4-4-2-2-2-2-2-2-2-2-5-5-5-5---------|
A:|-5-5-5-5-5-5-5-5-4-4-4-4-2-2-2-2-2-2-2-2-2-2-2-2-3-3-3-3---------|
E:|-3-3-3-3-3-3-3-3-2-2-2-2---------0-0-0-0-0-0-0-0-----------------|

Verse I:

Gtr I

e:|-----------------------------------------------------------------|
B:|-----------------------------------------------------------------|
G:|-------------------------------------------------------5-5-5-5-5-| 
D:|-5-5-5-5-5-5-5-5-4-4-4-4-4-4-4-4-2-2-2-2-2-2-2-2-5-5-5-5-5-5-5-5-|
A:|-5-5-5-5-5-5-5-5-4-4-4-4-2-2-2-2-2-2-2-2-2-2-2-2-3-3-3-3-3-3-3-3-|
E:|-3-3-3-3-3-3-3-3-2-2-2-2---------0-0-0-0-0-0-0-0-----------------|
PM  * * * * * * * * * * * * * * *   * * * * * * * * * * * * * * * *

e:|------------------------------------------------------------------|
B:|------------------------------------------------------------------|
G:|---4---4---4---4--------------------------------------------------| 
D:|---5---5---5---5-4-4-4-4-4-4-4----2-2-2-2-2-2-2-2-5-5-5-5-5-5-5-5-|
A:|---5---5---5---5-4-4-4-4-2-2-2-2^-2-2-2-2-2-2-2-2-3-3-3-3-3-3-3-3-|
E:|-3-3-3-3-3-3-3-3-2-2-2-2----------0-0-0-0-0-0-0-0-----------------|
PM  *   *   *   *   * * * * * * *    * * * * * * * * * * * * * * * *

Gtr II

e:|-----------------------------------------------------------------------|
B:|-----------------------------------------------------------------------|
G:|-------------1212-------12/11/9/11----------------5-5-7-7-9-9-16/17/16-|
D:|--------------x-x--------x--x-x--x----------------x-x-x-x-x-x--x--x--x-|
A:|-------------1010-------10/-9/7/-9----------------3-3-5-5-7-7-14/15/14-|
E:|-----------------------------------------------------------------------|

e:|-------------------------------------------------------------------|
B:|-------------------------------------------------------------------|
G:|-12-12-12-12------------12/11/9/7----------------5-5-7-7-9-9-11-11-|
D:|--x--x--x--x-------------x--x-x-x----------------x-x-x-x-x-x--x--x-|
A:|-10-10-10-10------------10/-9/7/5----------------3-3-5-5-7-7--9--9-|
E:|-------------------------------------------------------------------|

Pre-Chorus:

Gtr I

e:|------------|
B:|------------|
G:|-2~---------|
D:|-2~-------~-|
A:|-0~--3~--5~-|
E:|------------|

Gtr II

e:|---------------------------------|
B:|---------------------------------|
G:|-----------------5-4-7-4---------|
D:|-7-9-7-5-7-9-7-5---------7-4---7-|
A:|-----------------------------5---|
E:|---------------------------------|

Chorus:

Gtr I (x2)

e:|-----------------------------------------------------------------|
B:|-----------------------------------------------------------------|
G:|-----------------------------------------------------------------|
D:|-5-5-5-5-5-5-5-5-4-4-4-4-4-4-4-4-5-5-5-5-5-5-5-5-9-9-9-9-7-7-7-7-|
A:|-5-5-5-5-5-5-5-5-2-2-2-2-2-2-2-2-3-3-3-3-3-3-3-3-6-6-6-6-5-5-5-5-|
E:|-3-3-3-3-3-3-3-3-------------------------------------------------|

Gtr II (x2)

e:|-------------------------------------------------------------------|
B:|-------------------------------------------------------------------|
G:|-12121212121212121212121212121212-11111111111111111111111111111111-|
D:|--x-x-x-x-x-x-x-x-x-x-x-x-x-x-x-x--x-x-x-x-x-x-x-x-x-x-x-x-x-x-x-x-|
A:|-10101010101010101010101010101010--9-9-9-9-9-9-9-9-9-9-9-9-9-9-9-9-|
E:|-------------------------------------------------------------------|

e:|------------------------------------------------------------------|
B:|------------------------------------------------------------------|
G:|-1414141414141414-1212121212121212-1616161616/17/1414141414141414-|
D:|--x-x-x-x-x-x-x-x--x-x-x-x-x-x-x-x--x-x-x-x-x--x--x-x-x-x-x-x-x-x-|
A:|-1212121212121212-1010101010101010-1414141414/15/1212121212121212-|
E:|------------------------------------------------------------------|

Pre-Verse:

Gtr I

e:|---------------------------------|
B:|---------------------------------|
G:|---------------------------------|
D:|-5-5-5-5-5-5-5-5-5-5-5-5-5-5-5-5-|
A:|-5-5-5-5-5-5-5-5-5-5-5-5-5-5-5-5-|
E:|-3-3-3-3-3-3-3-3-3-3-3-3-3-3-3-3-|

Gtr II

e:|----------------------------<12>-|
B:|----------------------------<12>-|
G:|----------------------------<12>-|
D:|---------------------------------|
A:|---------------------------------|
E:|---------------------------------|

Verse II

Gtr I

e:|-----------------------------------------------------------------|
B:|-----------------------------------------------------------------|
G:|-------------------------------------------------------5-5-5-5-5-| 
D:|-5-5-5-5-5-5-5-5-4-4-4-4-4-4-4-4-2-2-2-2-2-2-2-2-5-5-5-5-5-5-5-5-|
A:|-5-5-5-5-5-5-5-5-4-4-4-4-2-2-2-2-2-2-2-2-2-2-2-2-3-3-3-3-3-3-3-3-|
E:|-3-3-3-3-3-3-3-3-2-2-2-2---------0-0-0-0-0-0-0-0-----------------|
PM  * * * * * * * * * * * * * * *   * * * * * * * * * * * * * * * *

e:|------------------------------------------------------------------|
B:|------------------------------------------------------------------|
G:|---4---4---4---4--------------------------------------------------| 
D:|---5---5---5---5-4-4-4-4-4-4-4----2-2-2-2-2-2-2-2-5-5-5-5-5-5-5-5-|
A:|---5---5---5---5-4-4-4-4-2-2-2-2^-2-2-2-2-2-2-2-2-3-3-3-3-3-3-3-3-|
E:|-3-3-3-3-3-3-3-3-2-2-2-2----------0-0-0-0-0-0-0-0-----------------|
PM  *   *   *   *   * * * * * * *    * * * * * * * * * * * * * * * *

Gtr II

e:|-0--0--0--0----------------0--0--0--0--2-2-2-2-2-2-2-|
B:|-8--8--8--8--7-7-7-7-7-7-7-8--8--8--8--3-3-3-3-3-3-3-|
G:|-7--7--7--7--7-7-7-7-7-7-7-7--7--7--7--4-4-4-4-4-4-4-|
D:|-----------------------------------------------------|
A:|-----------------------------------------------------|
E:|-----------------------------------------------------|

e:|-0--0--0--0-------------------0--0--0-----5-----5~-|
B:|-8--8--8--8--7-7-7-7-7-7-7-7--8--8--8---8-----8----|
G:|-7--7--7--7--7-7-7-7-7-7-7-7--7--7--7-7-----7------|
D:|---------------------------------------------------|
A:|---------------------------------------------------|
E:|---------------------------------------------------|


Repeat Pre-Chorus

Repeat Chorus

Bridge:

(This is just bass and keyboard etc, so here's a little guitar fill that can be played, 
isn't actually played on the CD...I think it's what is played live but I 'aint sure)

Gtr II

e:|-------------------------------------------------|
B:|-------------------------------------------------|
G:|-------------------------------------------------|
D:|-------------------------------------------------|
A:|-12-12-12-12-12-12-12-12-10-10-10-10-10-10-10-10-|
E:|-------------------------------------------------|
PM  *  *  *  *  *  *  *  *  *  *  *  *  *  *  *  *

e:|---------------------------------|
B:|---------------------------------|
G:|---------------------------------|
D:|---------------------------------|
A:|-9-9-9-9-7-7-7-7-5-5-5-5-5-5-5-5-|
E:|---------------------------------|
PM  * * * * * * * * * * * * * * * *

e:|-------------------------------------------------|
B:|-------------------------------------------------|
G:|-------------------------------------------------|
D:|-------------------------------------------------|
A:|-12-12-12-12-12-12-12-12-10-10-10-10-10-10-10-10-|
E:|-------------------------------------------------|
PM  *  *  *  *  *  *  *  *  *  *  *  *  *  *  *  *

e:|-------------------------------------------------------------|
B:|-------------------------------------------17171717-20202020-|
G:|-16/17/16/17/16/17/16/17-17171717-19191919--x-x-x-x--x-x-x-x-|
D:|--x--x--x--x--x--x--x--x--x-x-x-x--x-x-x-x-14141414-17171717-|
A:|-14/15/14/15/14/15/14/15-15151515-17171717-------------------|
E:|-------------------------------------------------------------|
                            ^
                            Gtr I plays a pickscrape here

Solo: (Not sure about this)

Gtr I

e:|------------------------------------------------------------|
B:|--------------------------------8-8~------------------------|
G:|-----------4-5-7-7^(9)-7p5h7~-7------4h5p4-2h4p2-0h2p0------|
D:|-5~-5~-5-7---------------------------------------------2----|
A:|---------------------------------------------------------3~-|
E:|------------------------------------------------------------|

e:|------------------------5----------------|
B:|--------------------------7--------------|
G:|-0h2p0----------------------7-5----------|
D:|-------2h4p2-0h2p0--------------5h7p5p4~-|
A:|-------------------2p0~------------------|
E:|-----------------------------------------|
-
e:|-------------------3------3-------------------------7------------7----|
B:|-3-----3-----3-----3-3----3-3---------------------8---8~-------8---8~-|
G:|-5^(7)-5^(7)-5^(7)---5^(7)--5^(7)-7^(9)r7-5---7h9----------7h9--------|
D:|--------------------------------------------9------------9------------|
A:|----------------------------------------------------------------------|
E:|----------------------------------------------------------------------|

e:|-15-17p15----19p15----17p15----19p15----17p15----19p15----17p15----19p15|
B:|----------15-------15-------15-------15-------15-------15-------15------|
G:|------------------------------------------------------------------------|
D:|------------------------------------------------------------------------|
A:|------------------------------------------------------------------------|
E:|------------------------------------------------------------------------|

e:|-20p15----19p15----17p15----19p15----19-17-15-15------15/------|
B:|-------15-------15-------15-------15----------18^(20)-18^(20)/-|
G:|---------------------------------------------------------------|
D:|---------------------------------------------------------------|
A:|---------------------------------------------------------------|
E:|---------------------------------------------------------------|

Gtr II just plays Gtr I's riff in the chorus behind the solo.

Outro Pt I: (Repeat this as many times as needed)

(Before the outro starts Gtr II plays a pickscrape)

Gtr I

e:|-----------------------------------------------------------------|
B:|-----------------------------------------------------------------|
G:|-----------------------------------------------------------------|
D:|-5-5-5-5-5-5-5-5-4-4-4-4-4-4-4-4-5-5-5-5-5-5-5-5-7-7-7-7-7-7-7-7-|
A:|-5-5-5-5-5-5-5-5-2-2-2-2-2-2-2-2-3-3-3-3-3-3-3-3-5-5-5-5-5-5-5-5-|
E:|-3-3-3-3-3-3-3-3-------------------------------------------------|

Gtr II

e:|---------------------------------------------------------------|
B:|---------------------------------------------------------------|
G:|-12/11/9/12--9--12/11/9/14--9--12/11/9/12--9--7/9/11/12~-11/14-|
D:|--x-x--x--x--x---x-x--x--x--x---x-x--x--x--x--x-x-x---x--x--x--|
A:|-10/9-/7/10--7--10/9-/7/12--7--10/9-/7/10--7--5/7/9-/10~-9-/12-|
E:|---------------------------------------------------------------|

Outro Pt II:

Gtr I

e:|-----------------x---|
B:|-----------------x---|
G:|-----------------x---|
D:|-5-5-5-5-5-5-------5-|
A:|-5-5-5-5-5-5-x-x---5-|
E:|-3-3-3-3-3-3-x-x---3-|

Gtr II

e:|---------------------|
B:|---------------------|
G:|---------------------|
D:|-------------------5-|
A:|-------------------5-|
E:|-------------------3-|
Suggest correction new What's this?
You can suggest a correction to this tab. Community and Mods will review your correction and vote to approve or reject it.
comments
print report bad tab
7 comments total. Showing first comments.
0 reply
f1f2 3,681 wrote on January 13 2007, 04:04 am

nice tab buddy!

0 reply
stuart_cowan90 346 wrote on January 13 2007, 09:48 am

yeah pretty good, but to be honest mine was better and wasnt accepted

0 reply
dennis-arias 12 wrote on January 14 2007, 01:25 pm

nice job dude! I LOVE THIS SONG... but i think that the intro part is like this:

Intro Pt I:

Gtr I

e:|------------------------------|
B:|------------------------------|
G:|------------------------------|
D:|-5-5-5-5-5-5-44-5-5-5-5-5-5-4-|
A:|-5-5-5-5-5-5-44-5-5-5-5-5-5-4-|
E:|-3-3-3-3-3-3-22-3-3-3-3-3-3-2-|

and then all sounds great!!

you can listen it clearly in AOL SESSION "MY CHEMICAL ROMANCE-DEAD!"

anyway 5 STARS!!!! *****

guest
You may want to rate the tab now too:
select rating
Please do not post tabs as comments. Select "correction" instead!