Oops, an error
Loading. Please wait.

Dead Tab

version 2
version 2
240,220 views 492 this week
56 commentsread comments
1 2 3 4 5
excellent!
x 156
add to favorites
launch autoscroll
font size
0
reset
how to read this tab
guitar tuner
Autoscroll
slow
fast
+/-
esc
set tempo
stop
Help us to improve Ultimate-Guitar.com Take our survey!
×
Contributor
Mathamology 3,721
My Chemical Romance : "Dead! [solo parts]"
      Off the album : "The Black Parade"

Tabbed by Matthew Mason, completely by ear

Okay, so I initially tabbed just the intro and main solo, but my tab got
denied, so I thought, what the hell, and tabbed the whole thing :D

Send comments or corrections to Mathamology@hotmail.com

||--------------|------------------------------------------------------------|
||  KEY         |------------------------------------------------------------|
||--------------|------------------------------------------------------------|

[1]        - Guitar 1
[2]        - Guitar 2


Legend:
^(n)    - Bend to fret (n)
(n)r    - Release bend from fret (n)
 h      - Hammer on
 p      - Pull off
 ~      - Vibrato
 /      - Slide
 *      - Harmonic (natural)
 .      - Palm mute


||--------------|------------------------------------------------------------|
||  Intro       |------------------------------------------------------------|
||----[0:00]----|------------------------------------------------------------|

[1]
e|:|-----------------------------------|
B|:|-----------------------------------|
G|:|-----------------------------------|
D|:|-5-5-5-5-5-5-5/4-4-5-5-5-5-5-5-5-5-|
A|:|-5-5-5-5-5-5-5/4-4-5-5-5-5-5-5-5-5-|
E|:|-3-3-3-3-3-3-3/2-2-3-3-3-3-3-3-3-3-|

[1][ Under Intro Solo                                                 ]
e|:|------------------------------------------------------------------|
B|:|------------------------------------------------------------------|
G|:|---------------------------------------------------------7-8------|
D|:|-5-5-5-5-5-5-5-5-4-4-4-4-4-4-4-4-2-2-2-2-2-2-2-2-5-5-5-5-----9----|
A|:|-5-5-5-5-5-5-5-5-4-4-4-4-2-2-2-2-2-2-2-2-2-2-2-2-3-3-3-3-------10-|
E|:|-3-3-3-3-3-3-3-3-2-2-2-2---------0-0-0-0-0-0-0-0------------------|

||--------------|------------------------------------------------------------|
||  Intro Solo  |------------------------------------------------------------|
||----[0:04]----|------------------------------------------------------------|

[2]
e|:|------------------------------------------------------------------------|
B|:|----12--------12--------12--------12------12--------------15^(17)r15-12-|
G|:|----14^(16)---14^(16)---14^(16)---14^(16)-14^(16)r14-12~~---------------|
D|:|------------------------------------------------------------------------|
A|:|------------------------------------------------------------------------|
E|:|------------------------------------------------------------------------|

[2]
e|:|-15^(17)r15p12h15p12----12-----------------------------------------12---|
B|:|---------------------15----15^(17)r15^(17)r15-12h15p12-----12-----------|
G|:|--------------------------------------------------------14-14^(16)------|
D|:|------------------------------------------------------------------------|
A|:|------------------------------------------------------------------------|
E|:|------------------------------------------------------------------------|

[2]
e|:|-14^(15)r14-12h14p12----12--12------12------12------12-------12---------|
B|:|---------------------15-----15^(17)-15^(17)-15^(17)-15^(17)--15^(17)-17-|
G|:|------------------------------------------------------------------------|
D|:|------------------------------------------------------------------------|
A|:|------------------------------------------------------------------------|
E|:|------------------------------------------------------------------------|

[2]
e|:|---------------------------------------------||
B|:|-17-15-12-15-12------------------------------||
G|:|----------------14-15-14-12-14-12---14--12~~-||
D|:|----------------------------------12---------||
A|:|---------------------------------------------||
E|:|---------------------------------------------||

||--------------|------------------------------------------------------------|
||  Verse One   |------------------------------------------------------------|
||----[0:14]----|------------------------------------------------------------|

[1]
e|:|------------------------------------------------------------------|
B|:|------------------------------------------------------------------|
G|:|------------------------------------------------------------------|
D|:|-------------------------4-4-4-4-----------------5-5-5-5-5-5-5-5--|
A|:|-5-5-5-5-5-5-5-5-4-4-4-4-2-2-2-2-2-2-2-2-2-2-2-2-3-3-3-3-3-3-3-3--|
E|:|-3-3-3-3-3-3-3-3-2-2-2-2---------0-0-0-0-0-0-0-0------------------|
 | | . . . . . . . . . . . . . . .   . . . . . . . . . . . . . . . .
[2]|
e|:|------------------------------------------------------------------|
B|:|------------------------------------------------------------------|
G|:|-------------/12~-------12-11-9-11----------11/----------------4/-|
D|:|---------------------------------------------------------2-2-4-4/-|
A|:|-------------------------------------------------3-3-5-5----------|
E|:|------------------------------------------------------------------|

[1]
e|:|------------------------------------------------------------------|
B|:|------------------------------------------------------------------|
G|:|---4---4---4---4--------------------------------------------------|
D|:|---5---5---5---5---------4-4-4-4-----------------5-5-5-5-5-5-5-5--|
A|:|---5---5---5---5-4-4-4-4-2-2-2-2-2-2-2-2-2-2-2-2-3-3-3-3-3-3-3-3--|
E|:|-3-3-3-3-3-3-3-3-2-2-2-2---------0-0-0-0-0-0-0-0------------------|
 | | .   .   .   . . . . . . . . .   . . . . . . . . . . . . . . . .
[2]|
e|:|------------------------------------------------------------------|
B|:|------------------------------------------------------------------|
G|:|---12--12--12--12-------12-11-9-11----------11/--5-5-7-7-9-9-1111-|
D|:|------------------------------------------------------------------|
A|:|---10--10--10--10------------------------------------5-5-7-7-9-9--|
E|:|------------------------------------------------------------------|
                                                         . . . .

||--------------|------------------------------------------------------------|
||  Pre Chorus  |------------------------------------------------------------|
||----[0:33]----|------------------------------------------------------------|

[1]
e|:|------------------------------------|
B|:|------------------------------------|
G|:|-----------------5---------7--------|
D|:|-7---------------5---------7--------|
A|:|-7---------------3---------5--------|
E|:|-5----------------------------------|
 | |
[2]|
e|:|------------------------------------|
B|:|------------------------------------|
G|:|------------------------------------|
D|:|-10-9-7-5-7-9-5~~-10p9-12p9-5p4-2p0-|
A|:|------------------------------------|
E|:|------------------------------------|

||--------------|------------------------------------------------------------|
||  Chorus      |------------------------------------------------------------|
||----[0:38]----|------------------------------------------------------------|


[1]
e|:|-------------------------------------------------------------------|--|
B|:|-------------------------------------------------------------------|--|
G|:|-------------------------------------------------------------------|--|
D|:|-5-5-5-5-5-5-5-5-4-4-4-4-4-4-4-4-5-5-5-5-5-5-5-5-9-9-9-9-7-7-7-7---|--|
A|:|-5-5-5-5-5-5-5-5-2-2-2-2-2-2-2-2-3-3-3-3-3-3-3-3-6-6-6-6-5-5-5-5---|x2|
E|:|-3-3-3-3-3-3-3-3---------------------------------------------------|--|
 | |
[2]|
e|:|-------------------------------------------------------------------|--|
B|:|-------------------------------------------------------------------|--|
G|:|-12121212121212--11111111111111--1212121212121212-1616161614141414-|--|
D|:|-------------------------------------------------------------------|--|
A|:|-10101010101010--9-9-9-9-9-9-9---1010101010101010-1414141412121212-|x2|
E|:|-------------------------------------------------------------------|--|

||--------------|------------------------------------------------------------|
||  Post Chorus |------------------------------------------------------------|
||----[0:58]----|------------------------------------------------------------|

[1]
e|:|---------------------------------|
B|:|---------------------------------|
G|:|---------------------------------|
D|:|-5-5-5-5-5-5-5-5-5-5-5-5-5-5-5---|
A|:|-5-5-5-5-5-5-5-5-5-5-5-5-5-5-5---|
E|:|-3-3-3-3-3-3-3-3-3-3-3-3-3-3-3---|
 | |
[2]| [ Gradually increase volume     ]
e|:|---------------------------------|
B|:|---------------------------------|
G|:|-----------------5*--------------|
D|:|---------------------------------|
A|:|---------------------------------|
E|:|---------------------------------|

||--------------|------------------------------------------------------------|
||  Verse Two   |------------------------------------------------------------|
||----[1:03]----|------------------------------------------------------------|

[1]
e|:|------------------------------------------------------------------|
B|:|------------------------------------------------------------------|
G|:|------------------------------------------------------------------|
D|:|-------------------------4-4-4-4-----------------5-5-5-5-5-5-5-5--|
A|:|-5-5-5-5-5-5-5-5-4-4-4-4-2-2-2-2-2-2-2-2-2-2-2-2-3-3-3-3-3-3-3-3--|
E|:|-3-3-3-3-3-3-3-3-2-2-2-2---------0-0-0-0-0-0-0-0------------------|
 | | . . . . . . . . . . . . . . .   . . . . . . . . . . . . . . . .
[2]|
e|:|------------------------------------------------------------------|
B|:|---8---8---8---8---7-7-7-7-7-7777--8---8---8---8---4-4-4-4-4-4444-|
G|:|---7---7---7---7---6-6-6-6-6-6666--7---7---7---7---3-3-3-3-3-3333-|
D|:|------------------------------------------------------------------|
A|:|------------------------------------------------------------------|
E|:|------------------------------------------------------------------|

[1]
e|:|------------------------------------------------------------------|
B|:|------------------------------------------------------------------|
G|:|------------------------------------------------------------------|
D|:|-------------------------4-4-4-4-----------------5-5-5-5-5-5-5-5--|
A|:|-5-5-5-5-5-5-5-5-4-4-4-4-2-2-2-2-2-2-2-2-2-2-2-2-3-3-3-3-3-3-3-3--|
E|:|-3-3-3-3-3-3-3-3-2-2-2-2---------0-0-0-0-0-0-0-0------------------|
 | | . . . . . . . . . . . . . . .   . . . . . . . . . . . . . . . .
[2]|
e|:|---7---7---7---7-------------------7-------7---------5-----5------|
B|:|---8---8---8---8---7-7-7-7-7-7777--8---8---8---8-7-8-----7-----7--|
G|:|---7---7---7---7---6-6-6-6-6-6666--7---7---7---7-------7----------|
D|:|------------------------------------------------------------------|
A|:|------------------------------------------------------------------|
E|:|------------------------------------------------------------------|

||--------------|------------------------------------------------------------|
||  Pre Chorus  |------------------------------------------------------------|
||----[1:21]----|------------------------------------------------------------|

[1]
e|:|------------------------------------|
B|:|------------------------------------|
G|:|-----------------5---------7--------|
D|:|-7---------------5---------7--------|
A|:|-7---------------3---------5--------|
E|:|-5----------------------------------|
 | |
[2]|
e|:|------------------------------------|
B|:|------------------------------------|
G|:|------------------------------------|
D|:|-10-9-7-5-7-9-5~~-10p9-12p9-5p4-2p0-|
A|:|------------------------------------|
E|:|------------------------------------|

||--------------|------------------------------------------------------------|
||  Chorus      |------------------------------------------------------------|
||----[1:27]----|------------------------------------------------------------|


[1]
e|:|-------------------------------------------------------------------|--|
B|:|-------------------------------------------------------------------|--|
G|:|-------------------------------------------------------------------|--|
D|:|-5-5-5-5-5-5-5-5-4-4-4-4-4-4-4-4-5-5-5-5-5-5-5-5-9-9-9-9-7-7-7-7---|--|
A|:|-5-5-5-5-5-5-5-5-2-2-2-2-2-2-2-2-3-3-3-3-3-3-3-3-6-6-6-6-5-5-5-5---|x2|
E|:|-3-3-3-3-3-3-3-3---------------------------------------------------|--|
 | |
[2]|
e|:|-------------------------------------------------------------------|--|
B|:|-------------------------------------------------------------------|--|
G|:|-12121212121212--11111111111111--1212121212121212-1616161614141414-|--|
D|:|-------------------------------------------------------------------|--|
A|:|-10101010101010--9-9-9-9-9-9-9---1010101010101010-1414141412121212-|x2|
E|:|-------------------------------------------------------------------|--|

||--------------|------------------------------------------------------------|
||  Breakdown   |------------------------------------------------------------|
||----[1:46]----|------------------------------------------------------------|

Okay, there isn't strictly any guitar in this section, but I've transcribed
the brass sections onto guitars

[B]
e|:|--------------------------------------------------8-7-8-7-8----------7-||
B|:|------------------8-8-7-8---8-7-8---------------------------8~--10-----||
G|:|----------------7------------------------------------------------------||
D|:|--------------------------9-------9---7---4----------------------------||
A|:|-----------------------------------------------------------------------||
E|:|-----------------------------------------------------------------------||

||--------------|------------------------------------------------------------|
||  Pre Solo    |------------------------------------------------------------|
||----[2:00]----|------------------------------------------------------------|

[1]
e|:|------------------------------------|
B|:|------------------------------------|
G|:|-----------/                    /---|
D|:|-----------/     PICK SLIDE     /---|
A|:|-----------/                    /---|
E|:|------------------------------------|
[2]|
e|:|------------------------------------|
B|:|------------------------------------|
G|:|-4-5-4-5-4-5-4-5-4-5----------------|
D|:|------------------------------------|
A|:|------------------------------------|
E|:|-----------------------------3/15/--|

||--------------|------------------------------------------------------------|
||  Main Solo   |------------------------------------------------------------|
||----[2:05]----|------------------------------------------------------------|

[1] [ Rhythm under solo
e|:|-----------------------------------------------------------------|--|
B|:|-----------------------------------------------------------------|--|
G|:|-----------------------------------------------------------------|--|
D|:|-5-5-5-5-5-5-5-5-4-4-4-4-4-4-4-4-5-5-5-5-5-5-5-5-8-8-8-8-8-8-8-8-|--|
A|:|-5-5-5-5-5-5-5-5-2-2-2-2-2-2-2-2-3-3-3-3-3-3-3-3-6-6-6-6-6-6-6-6-|x2|
E|:|-3-3-3-3-3-3-3-3-------------------------------------------------|--|

[2] Guitar two is split here into two parts:

[L] = Lead
[D] = Dubbed

[L]
e|:|-------------------------------------------------------------------------|
B|:|----------------------------8-8~-----------------------------------------|
G|:|-------4-5-7-7^(9)r7-5-7~-7------4h5p4-2h4p2-0h2p0-----------------------|
D|:|-5~~-5-------------------------------------------------------------------|
A|:|---------------------------------------------------5p3~------------------|
E|:|-------------------------------------------------------------------------|
 | |
[D]|
e|:|-------------------------------------------------------------------------|
B|:|-------------------------------------------------------------------------|
G|:|-------------------------------------------------------------------------|
D|:|-----------------------------------------------------7p5---5-----2-------|
A|:|---------------------------------------------------------7---7-3---3-0---|
E|:|-----------------------------------------------------------------------3-|

[L]
e|:|-5-----------------3-------3-------3-------3------------------------7----|
B|:|---7---------------3-3-----3-3-----3-3-----3-3--------------------8---8~-|
G|:|-----8-5-------------5^(7)---5^(7)---5^(7)---5^(7)r5p3h5p3----7h9--------|
D|:|---------7-5-4~~---------------------------------------------9-----------|
A|:|-------------------------------------------------------------------------|
E|:|-------------------------------------------------------------------------|
 | |
[D]|
e|:|-2---------------------------------------------------------------------||
B|:|---4-------------------------------------------------------------------||
G|:|-----5-2-----2~~-------------------------------------------------------||
D|:|---------4-2-----------------------------------------------------------||
A|:|-----------------------------------------------------------------------||
E|:|-----------------------------------------------------------------------||

[L]
e|:|--------7--------17p15----19p15----17p15----19p15-----17p15----19p15-----|
B|:|------8---8~~-15--------15-------15-------15-------15--------15-------15-|
G|:|--7h9--------------------------------------------------------------------|
D|:|-9-----------------------------------------------------------------------|
A|:|-------------------------------------------------------------------------|
E|:|-------------------------------------------------------------------------|

[L]
e|:|-17p15----19p15----20p15----19p15----17p15----19p15--------------------||
B|:|-------15-------15-------15-------15-------15-------15-18^(20)^^^(20)/-||
G|:|-----------------------------------------------------------------------||
D|:|-----------------------------------------------------------------------||
A|:|-----------------------------------------------------------------------||
E|:|-----------------------------------------------------------------------||

||--------------|------------------------------------------------------------|
||  Outro       |------------------------------------------------------------|
||----[2:28]----|------------------------------------------------------------|


[1]                [ Let Chords Ring                                  ]
e|:|---------------|--------------------------------------------------|--|
B|:|---------------|--------------------------------------------------|--|
G|:|-/           /-|--------------------------------------------------|--|
D|:|-/ PICKSLIDE /-|-5------------4-----------5-----------7-----------|--|
A|:|-/           /-|-5------------2-----------3-----------5-----------|x4|
E|:|---------------|-3------------------------------------------------|--|
                   |
                  [2][ THIS COMES IN AFTER [1] PLAYS THE ABVOVE TWICE ]
                  e|:|------------------------------------------------|--|
                  B|:|------------------------------------------------|--|
                  G|:|-16-14-12------14-12-11------12-11-9------/14---|--|
                  D|:|------------------------------------------------|--|
                  A|:|-14-12-10------12-10-9-------10-9--7------/12---|x2|
                  E|:|------------------------------------------------|--|


[1]
e|:|---------------------||
B|:|---------------------||
G|:|---------------------||
D|:|-5-5-5-5-5-5-x-----5-||
A|:|-5-5-5-5-5-5-x-----5-||
E|:|-3-3-3-3-3-3-x-----3-||
 | |
[2]|
e|:|-------------x--4*---||
B|:|-------------x-------||
G|:|-------------x-------||
D|:|---------------------||
A|:|---------------------||
E|:|---------------------||

Please rate :) again, comments or corrections to Mathamology@hotmail.com
comments
print report bad tab
56 comments total. Showing first comments.
0 reply
f1f2 3,681 wrote on January 17 2007, 07:16 am

Awesome tab, buddy! And uh yes, since its my lucky day today, I'll give this 5 stars, even though I have also a version of the song ^_^

And yes, I hope I can finish tabbing this My Way Home Is Through You song as soon as possible, or if you could just tab it then, it would be better. Nice job, keep on it buddy.

+1 reply
Mathamology 3,721 wrote on January 17 2007, 07:18 am

Haha, thanks a lot man :)

I dont have that song, is it a B-side? I'll leave that one to you ;) I only did the solos for this song, but that was denied, and i didn't want to see my work go to waste

0 reply
f1f2 3,681 wrote on January 17 2007, 07:35 am

Yes, i got it from limewire (get it too! ^_^) I really liked the song so bad that I want to play it in my own.. and if somebody can tab this song,, please post it!! I want that song!

I want to post or [tab]
guest
You may want to rate the tab now too:
select rating
Please do not post tabs as comments. Select "correction" instead!