Oops, an error
Loading. Please wait.

Dead Tab

version 3
version 3
4,303 views 6 this week
2 commentsread comments
1 2 3 4 5
worth learning
x 5
add to favorites
launch autoscroll
font size
0
reset
how to read this tab
guitar tuner
Tab Pro tools
  • play this tab
  • loop segment
  • change instrument
  • show fretboard
  • metronome
×
Best way to learn
"Dead"
Autoscroll
slow
fast
+/-
esc
set tempo
stop
Contributor
This is my first tab...and i have been working on this song since like last year! and i'm only 13.^.<

Dead  Tabs
-LIVE- version
/      = Slide Up
*     = Harmonic
|--|   = second ending
~     = hold note
h     = Hammer on
-INTRO-
Guitar1
0:01
1|---------------------------------------------------------------------------|
2|---------------------------------------------------------------------------|
3|------------------------------------------------------------4-4-4-4--------|
4|-5-5-5-5-5-5/4-4-4-4/-5-5-5-5-5-5---5-5-5-5-5-5-5-5-4-4-4-4-4-4-4-4-3-3-3--|
5|-5-5-5-5-5-5/4-4-4-4/-5-5-5-5-5-5---5-5-5-5-5-5-5-5-4-4-4-4-2-2-2-2-3-3-3--|
6|-3-3-3-3-3-3/2-2-2-2/-3-3-3-3-3-3---3-3-3-3-3-3-3-3-2-2-2-2---------1-1-1--|
1|---------------------------------------------------------------------------|
2|----------------------3-4-3------------------------------------------------|
3|----------------------------4----------------------------------------------|
4|-3-3-3-3-3/5-5-5-5---------------------------------------------------------|
5|-3-3-3-3-3/5-5-5-5---------------------------------------------------------|
6|-1-1-1-1-1/3-3-3-3---------------------------------------------------------|
Guitar2
0:05
1|----------------------------------------------------------------------|
2|----------------------------------------------------------------------|
3|-------------------------4-4-4-4--------------------------------------|
4|–5-5-5-5-5-5-5-5-4-4-4-4-4-4-4-4-3-3-3-3-3-3-3-3/5-5-5-5-5-5-5-5------|
5|–5-5-5-5-5-5-5-5-4-4-4-4-2-2-2-2-3-3-3-3-3-3-3-3/5-5-5-5-5-5-5-5------|
6|--3-3-3-3-3-3-3-3-2-2-2-2-----------1-1-1-1-1-1-1-1/3-3-3-3-3-3-3-3---|

Verse - Guitar Part 1 (Ray)
0:14
1|---------------------------------------------------------------------|
2|---------------------------------------------------------------------|
3|-------------------------4-4-4-4-------------------------------------|
4|-5-5-5-5-5-5-5-5-4-4-4-4-4-4-4-4-3-3-3-3-3-3-3-3-/5-5-5-5-5-5-5------|
5|-5-5-5-5-5-5-5-5-4-4-4-4-2-2-2-2-3-3-3-3-3-3-3-3-/5-5-5-5-5-5-5------|
6|-3-3-3-3-3-3-3-3-2-2-2-2---------1-1-1-1-1-1-1-1-/3-3-3-3-3-3-3------|

1|------------------------------------------------------------------|
2|------------------------------------------------------------------|
3|---------------0:26-------------4-4-4-4-4-4-4-4-------------------|
4|--7--7--7--7---5-5-5-5-4-4-4-4--4-4-4-4-4-4-4-4-3-3-3-3-5-5-5-5---|
5|--7--7--7--7---5-5-5-5-4-4-4-4--2-2-2-2-2-2-2-2-3-3-3-3-5-5-5-5---|
6|--5--5--5--5---3-3-3-3-2-2-2-2------------------1-1-1-1-3-3-3-3---|
Guitar 2 (frank)
1|------------------------------------------------------------------------|
2|-----------------------------------------------------0:27---------------|
3|-11/7--7h6h7h6h7h6--4 --11/7--6h7h6---12--12--12--12--11/7 h6h7h6-4-----|
4|-11/7--7h6h7h6h7h6--4 --11/7--6h7h6---12--12--12--12--11/7 h6h7h6-4-----|
5|--------------------------------------10--10--10--10--------------------|
6|--------------------------------------10--10--10--10--------------------|


Pre-Chorus
Guitar - 1 (ray)
0:34 - 0:38
1|-----------------------|
2|-----------------------|
3|-----------5~ -7~ -----|
4|----7~ ---5~ -7~ ------|
5|----7~ ---3~ -5~ ------|
6|----5~ ----------------|

Guitar - 2 (frank)
0:34 - 0:38
1|--------------------------------------------|
2|--------------------------------------------|
3|------------------------5-5-7-4-------------|
4|----7-9-7-5-7-9-7-5-----------7-4-----------|
5|---------------------------------------5~ --|
6|--------------------------------------------|

Chorus
Guitar 1 (ray)
0:38
1|----------------------------------------------------------------------|
2|----------------------------------------------------------------------|
3|-------------------4-4-4-4-4-4-4-4-5-5-5-5-5-5-5-5-7-7-7-7-7-7-7-7----|
4|---5-5-5-5-5-5-5-5-4-4-4-4-4-4-4-4-5-5-5-5-5-5-5-5-7-7-7-7-7-7-7-7----|x2
5|---5-5-5-5-5-5-5-5-2-2-2-2-2-2-2-2-3-3-3-3-3-3-3-3-5-5-5-5-5-5-5-5----|
6|---3-3-3-3-3-3-3-3----------------------------------------------------|

Guitar 2 (frank)
0:38
1|--------------------------------------------------------------------------|
2|--------------------------------------------------------------------------|
3|---12-12-12-12-12-12-12-12–11-11-11-11-11-11-11-11--14-14-14-14-14-14-14--|
4|---x-x-x-x-x-x-x-x-x-x-x-x-x-x-x-x-x-x-x-x-x-x-x-x--x-x-x-x-x-x-x-x-x-x---|
5|---10-10-10-10-10-10-10-10-9-9-9-9-9-9-9-9-9-9-9-9--12-12-12-12-12-12-12--|
6|--------------------------------------------------------------------------|

1|-------------------------------|
2|-------------------------------|
3|-14-16-16-16-16-14-14-14-14----|
4|-x--x-x-x-x-x-x-x-x-x-x-x-x----|
5|-12-14-14-14-14-12-12-12-12----|
6|-------------------------------|

Intro again
Guitar 1 (ray)
0:58
1|--------------------------------------------|
2|--------------------------------------------|
3|--------------------------------------------|
4|---5-5-5-5-5-5-5-5/4-4-4-4/5-5-5-5-5-5-5-5--|
5|---5-5-5-5-5-5-5-5/4-4-4-4/5-5-5-5-5-5-5-5--|
6|---3-3-3-3-3-3-3-3/2-2-2-2/3-3-3-3-3-3-3-3--|         5
you don’t have to play the middle part ..u can play the 5
                                                        3.
Guitar 2
1:00
1|-------------------------1:02-0--|
2|---------------1:01-----------0--|
3|---------------12*~ -------------|
4|---5-----------12*~ -------------|
5|---5-----------------------------|
6|---3-----------------------------|

Verse 2
Guitar 1 (ray)
1:03
1|--------------------------------------------------------------------------|
2|--------------------------------------------------------------------------|
3|-----------------------4-4-4-4---------------------------------1:12-------|
4|5---5---5---5--4-4-4-4-4-4-4-4-3-3-3-3-3-3-3-3-/5-5-5-5-5-5-5--7--7--7--7-|
5|5---5---5---5--4-4-4-4-2-2-2-2-3-3-3-3-3-3-3-3-/5-5-5-5-5-5-5--7--7--7--7-|
6|3---3---3--3---2-2-2-2---------1-1-1-1-1-1-1-1-/3-3-3-3-3-3-3--5--5--5--5-|

1|-----------------------------------------------------------|
2|-----------------------------------------------------------|
3|---------------------4-4-4-4-4-4-4-4-----------------------|pre chorus
4|----5-5-5-5-4-4-4-4--4-4-4-4-4-4-4-4-3-3-3-3-5-5-5-5-------|chrous then
5|----5-5-5-5-4-4-4-4--2-2-2-2-2-2-2-2-3-3-3-3-5-5-5-5-------|the bridge
6|----3-3-3-3-2-2-2-2------------------1-1-1-1-3-3-3-3-------|

Guitar 2 (frank)
1:03
1|--------------------------------1:07--------------------------------------|
2|--------------------------------------------------------------------------|
3|--11-11-11-11-7-7-7-7h6h7h6h-4--11---11---11---11-7-7-7-7-6h7h6-----------|
4|--11-11-11-11-7-7-7-7h6h7h6h-4--11---11---11---11-7-7-7-7-6h7h6-----------|
5|--------------------------------------------------------------------------|
6|--------------------------------------------------------------------------|

1|----------------------------------------1:18----------------5-----7-55---|
2|-------------------------------------------------------5-7-----7---------|
3|---12--12--12--12-11-11-11/7h6h7h6-4----11-11-11-11----------------------|
4|---12--12--12--12-11-11-11/7h6h7h6-4----11-11-11-11----------------------|
5|---10--10--10--10--------------------------------------------------------|
6|---10--10--10--10--------------------------------------------------------|
Go to pre-chorus then chorus then the bridge!

Bridge
Guitar 1 (ray)
1:46
1|----------------------------------------------------------|
2|----------------------------------------------------------|
3|----------------------------------------------------------|
4|---5~ ------\wait until solo then/ ------2:03-------------|
5|---5~ ----------------------------------\\PickSlide//-----|
6|---5~ -----------------------------\\PickSlide//----------|

Guitar 2 (frank)
1:46
1|--------------------------------------------------------------------------|
2|--------------------------------------------------------------------------|
3|--------------------------------------------------------------------------|
4|--*play this softly*------------------------------------------------------|
5|---1:48-------------------------------------------------------------------|
6|---5-5-5-5--4-4-4-4--8-8-8-8--11-11-11-11-11-11-11-10-10-10-10-8-8-8-8-6--|

1|-----------------------------------------------------------------------|
2|-------------1:58------------------------------------------------------|
3|--------------8--7--6--7~ ----9h8h9h8h9h8h9h8h9h8h9h8h9-12-12-12-12-12-|
4|--------------x--x--x--x------9h8h9h8h9h8h9h8h9h8h9h8h9-12-12-12-12-12-|
5|--------------6--5--4--5~ ---------------------------------------------|
6|--6-6-6----------------------------------------------------------------|

Solo
Guitar 1
2:05
1|--------------------------------------------------------------------------|
2|----------------------4h5-3-3-4/5--8-8------------------------------------|
3|--------------4-5-7---------------------4h5-4-2-4-------------------------|
4|--5-5-5-5-5----------------------------------------5/7--------------------|
5|--------------------------4~ --------------|
6|--------------------------------------------------------------------------|

1|------------------------------------------3---3---3-3--3-3--3-3---3---3---|
2|---------------------12-8-10--------------3---3---3-3--3-3--3-3---3---3---|
3|-4h5-4-2-4--------------------11-9-7--5-----------------------------------|
4|------------5/7-----------------------------------------------------------|
5|--------------------------------------------------------------------------|
6|------------------4~ -----------------------------------------------------|

                                     I don't know about this part...sorry
1|--------7----------------7---------15------15--17--15------15--17--15-----|
2|------------8----------------8---------15--------------15-----------------|
3|-4h5-7-----------4h5-7----------------------------------------------------|
4|--------------------------------------------------------------------------|
5|--------------------------------------------------------------------------|
6|--------------------------------------------------------------------------|

1|-15-----15--17--15------15--17–18------19--18--17----18------19--18--17---|
2|----15--------------15-------------15---------------------15--------------|
3|--------------------------------------------------------------------------|
4|--------------------------------------------------------------------------|
5|--------------------------------------------------------------------------|
6|--------------------------------------------------------------------------|

1|---18-17-15-15-15-15-15\1---------|
2|----------------------------------|
3|----------------------------------|
4|----------------------------------|
5|----------------------------------|
6|----------------------------------|
solo
Guitar 2 (mr.frank)
2:05
1|----------------------------------------------------------------|
2|----------------------------------------------------------------|
3|------------------4-4-4-4-4-4-4-4-5-5-5-5-5-5-5-7-7-7-7-7-7-7-7-| x2
4|--5-5-5-5-5-5-5-5-4-4-4-4-4-4-4-4-5-5-5-5-5-5-5-7-7-7-7-7-7-7-7-|
5|--5-5-5-5-5-5-5-5-2-2-2-2-2-2-2-2-3-3-3-3-3-3-3-5-5-5-5-5-5-5-5-|
6|--3-3-3-3-3-3-3-3-----------------------------------------------|

Ending
Guitar 1 (ray)
2:29
1|-------------------------------------------------------------------------|
2|-------------------------------------------------------------------------|
3|------------------------4--4--4--4--4--4--4--4--5--5--5--5--5--5--5-7--7-|
4|-5--5--5--5--5--5--5--5-4--4--4--4--4--4--4--4--5--5--5--5--5--5--5-7--7-|
5|-5--5--5--5--5--5--5--5-2--2--2--2--2--2--2--2--3--3--3--3--3--3--3-5--5-|
6|-3--3--3--3--3--3--3--3--------------------------------------------------|

1|--------------------------|
2|--------------------------|
3|-7--7--7--7--7------------| x4
4|-7--7--7--7--7------------|
5|-5--5--5--5--5------------|
6|--------------------------|

3:09
1|---------------------------|
2|---------------------------|
3|---------------------------|
4|--5-5-5-5-5-5-4-4--5-------|
5|--5-5-5-5-5-5-4-4--5-------|
6|--3-3-3-3-3-3-2-2--3-------|

Guitar 2 (frank)
2:28
1|---------------|-2:29 - 3:09----------------------------------------------|
2|---------------|----------------------------------------------------------|
3|---------------|-12--9--7--12~ 9~ 7--12--9--7-12~ 9~ 12--9--7--12~ 9~ 7-7-|
4|---------------|-12--9--7--12~ 9~ 7--12--9--7-12~ 9~ 12--9--7--12~ 9~ 7-7-|
5|---------------|----------------------------------------------------------|
6|-\\PickSlide//-|----------------------------------------------------------|

1|-------------|
2|-------------|
3|-7-7-7-7-7---|
4|-7-7-7-7-7---|x3
5|-------------|
6|-------------|

3:11
1|----7*------------|
2|----7*------------|
3|---------12-------|
4|---------12-------|
5|---------10-------|
6|---------10-------|

there that’s Dead  By MyChemicalRomance off there new album....The Black Parade.
If you have any questions or comments...e-mail.me! ^.^
rynahrts@verizon.net!!!
hope you like it!
comments
print report bad tab
2 comments total.
0 reply
GNRAGE_2010 wrote on February 21 2007, 01:49 pm

It's in kind of an odd format

0 reply
lagoDD wrote on May 11 2008, 11:39 am

this tab isn't right. in this tab is many errors but morre correct;)hmm.. i say 4/5. Good job.

I want to post or [tab]
guest
You may want to rate the tab now too:
select rating
Please do not post tabs as comments. Select "correction" instead!