Oops, an error
Loading. Please wait.

Dead bass

version 4
version 4

Whole song

347 views 3 this week
no commentswrite comment
1 2 3 4 5
1 last vote to show rating
add to favorites
×
Save as Personal and add changes to this tab that will be seen only by you. Learn more ›
×
You can save this tab as Personal to edit and correct it or add notes. All changes will be seen only by you. Learn more »
launch autoscroll
font size
0
reset
guitar tuner
backing track
0:00
0:00
edit
Autoscroll
slow
fast
+/-
esc
set tempo
stop
Author
Difficulty
About this tab version
Other ones were good but noticed mistakes in all of them, so I re-did it and I also laid it out so it reads a little simpler. Was this info helpful? Yes No

Bass comes in straight after drums along with lead guitar

Intro- rest

G|------------|
D|------------|
A|------------|
E|------------|

 
G|-----------------------------------------------------------------------|
D|-----------------------------------------------------------------------|
A|----------------------------2-2-2-2-------------------3-3-3-3-3-3-3-3--|
E|--3-3-3-3-3-3-3-3--2-2-2-2-----------0-0-0-0-0-0-0-0-------------------|


Verse 1-
 (“And if your heart stops beating.....the end, and if your life”)
G|-----------------------------------------------------------------------|
D|-----------------------------------------------------------------------|
A|----------------------------2-2-2-2-------------------3-3-3-3-5-5-5-5--|
E|--3-3-3-3-3-3-3-3--2-2-2-2-----------0-0-0-0-0-0-0-0-------------------| x2
 

Pre-Chorus-
 (“won't wait then your heart can’t take this.”) 
G|-------------------------------------|
D|----------------------------0-0-0-0--|
A|--0-0-0-0-0-0-0-0--3-3-3-3-----------|
E|-------------------------------------|


Chorus-  
 (“Have you heard the news.....wouldn’t it be great if we were”) 
G|----------------------------------------------------------------------|
D|----------------------------------------------------------------------|
A|-------------------2-2-2-2-2-2-2-2--3-3-3-3-3-3-3-3--5-5-5-5-3-3-3-3--|
E|--3-3-3-3-3-3-3-3-----------------------------------------------------| x2


Post-chorus one-
(“dead, oh dead.”)
G|----------|
D|----------|
A|----------|
E|--3----3--|


Verse 2-
 (“Tongue-tied and oh so squeamish..... the end and if your life”)
G|-----------------------------------------------------------------------|
D|-----------------------------------------------------------------------|
A|----------------------------2-2-2-2-------------------3-3-3-3-3-3-3-3--|
E|--3-3-3-3-3-3-3-3--2-2-2-2-----------0-0-0-0-0-0-0-0-------------------| x2


Pre-Chorus-
(“won’t wait then your heart can’t take this.”)
G|-------------------------------------|
D|----------------------------0-0-0-0--|
A|--0-0-0-0-0-0-0-0--3-3-3-3-----------|
E|-------------------------------------|


Chorus-  
(“Have you heard the news.....wouldn’t it be great if we were”)
G|----------------------------------------------------------------------|
D|----------------------------------------------------------------------|
A|-------------------2-2-2-2-2-2-2-2--3-3-3-3-3-3-3-3--5-5-5-5-3-3-3-3--|
E|--3-3-3-3-3-3-3-3-----------------------------------------------------| x2


Post-Chorus Two-
(“dead.”)
G|-----|
D|-----|
A|-----|
E|--5--|


Bridge-
(“And in my honest observation.....
G|-------------------------------------------------------------------|
D|------------------------------------------1-1-1-1-2-2-2-2-0-0-0-0--|
A|--0-0-0-0-0-0-0-0-5-5-5-5-3-3-3-3-2-2-2-2--------------------------|
E|-------------------------------------------------------------------|

                                          .....both of you can give?”)
G|-------------------------------------------------------------------|
D|-------------------------------------------------------------------|
A|--3-3-3-3-2-2-2-2-0-0-0-0---------3-3-3-3-3-3-3-3-5-5-5-5-5-5-5-5--|
E|--------------------------3-3-3-3----------------------------------|


Guitar solo-

G|---------------------------------------------------------------------|
D|----------------------------------------------------1-1-1-1-0-0-0-0--|
A|-------------------2-2-2-2-2-2-2-2--3-3-3-3-3-3-3-3------------------|
E|--3-3-3-3-3-3-3-3----------------------------------------------------| 


G|---------------------------------------------------------------------|
D|---------------------------------------------------------------------|
A|-------------------2-2-2-2-2-2-2-2--3-3-3-3-3-3-3-3-5-5-5-5-5-5-5-5--|
E|--3-3-3-3-3-3-3-3----------------------------------------------------|

G|-----|
D|-----|
A|-----|
E|--3--|


(Rest)

(“One! Two! One two three four!”)

(“La la la la la....la la la la...........dead?”)
G|----------------------------------------------------------------------|
D|----------------------------------------------------------------------|
A|-------------------2-2-2-2-2-2-2-2--3-3-3-3-3-3-3-3--5-5-5-5-5-5-5-5--|
E|--3-3-3-3-3-3-3-3-----------------------------------------------------| x4

Outro-
(“Dead!”)
G|---------|
D|---------|
A|---------|
E|--3---3--|



End
Suggest correction
Creating personal tab
Creating personal tab
You can edit any tab online and save it as your Personal.

You can edit, replace or remove any tab part or add personal notes – all changes will be seen only by you.

Personal tabs can be accessed anytime from any device, even offline.
Learn more »
Give kudos to tab author, rate the tab!
1 2 3 4 5
comments
print report bad tab
guest
You may want to rate the tab now too:
select rating
Wanna post a correction for this tab? Suggest correction