Oops, an error
Loading. Please wait.

Desert Song Tab

version 1
version 1

Interactive

35,565 views 18 this week
42 commentsread comments
1 2 3 4 5
x 15
add to favorites
launch autoscroll
font size
0
reset
how to read this tab
guitar tuner
Autoscroll
slow
fast
+/-
esc
set tempo
stop
Help us to improve Ultimate-Guitar.com Take our survey!
×
Author
Difficulty
intermediate
Song: Desert Song
Band: My Chemical Romance
Album: Life On The Murder Scene (CD)

NOTE: There's still currently no rhythm for the bridge/solo, I'll put it up when I 
it out, the rhythm parts added aren't 100% accurate and there are a few mistakes but I'll try 
fix them asap x

Gtr I: Frank Iero: Standard Tuning (e,B,G,D,A,E)
Gtr II: Ray Toro: Standard Tuning (e,B,G,D,A,E)

Intro

Gtr I

e:|-<5>-<7>~-----------<5>-<7>~------<12>~-|
B:|----------<5>-<7>~------------<12>------|
G:|----------------------------------------|
D:|----------------------------------------|
A:|----------------------------------------|
E:|----------------------------------------|

Gtr II

e:|------------------------------|
B:|-0-000-0-000-1212-1010-88-777-|
G:|-x-xxx-x-xxx-x-x--x-x--xx-xxx-|
D:|-9-999-9-999-9-9--9-9--99-999-|
A:|-7-777-7-777-7-7--7-7--77-777-|
E:|-0-000-0-000-0-0--0-0--00-000-|

e:|----33----33----33----33-|
B:|-0-000-0-000-0-000-0-000-|
G:|-0-000-0-000-0-000-0-000-|
D:|-1-111-1-111-1-111-1-111-|
A:|-3-333-3-333-3-333-3-333-|
E:|-0-000-0-000-0-000-0-000-|

e:|-3-----------|
B:|-------------|
G:|---0---------|
D:|-----1-------|
A:|-------3---3-|
E:|---------0---|

Verse I

Gtr I

e:|-----------------------------------------|
B:|-----------------------------------------|
G:|-12-121212-11-111111/14-141414-11-111111-| (x2)
D:|-x--x-x-x--x--x-x-x--x--x-x-x--x--x-x-x--|
A:|-10-101010-9--9-9-9-/12-121212-9--9-9-9--|
E:|-----------------------------------------|

Gtr II

e:|-0-0000-0000-0000-000-x-xxxx-xxxx-xxxx-xxx-|
B:|-0-0000-0000-0000-000-0-0000-0000-0000-000-|
G:|-0-0000-0000-0000-000-0-0000-0000-0000-000-| (x2)
D:|-2-2222-2222-2222-222-1-1111-1111-1111-111-|
A:|-2-2222-2222-2222-222-3-3333-3333-3333-333-|
E:|-0-0000-0000-0000-000-0-0000-0000-0000-000-|


Pre-Chorus (Well after all) (x2)

Gtr I

e:|-----------------------------------------|
B:|-----------------------------------------|
G:|-16-161616/14-141414-17/171717/14-141414-|
D:|-x--x-x-x--x--x-x-x--x--x-x-x--x--x-x-x--|
A:|-14-141414/12-121212-15/151515/12-121212-|
E:|-----------------------------------------|

e:|-----------------------------------------|
B:|-----------------------------------------|
G:|-12-121212-11-111111/14-141414-11-111111-|
D:|-x--x-x-x--x--x-x-x--x--x-x-x--x--x-x-x--|
A:|-10-101010-9--9-9-9-/12-121212-9--9-9-9--|
E:|-----------------------------------------|

Gtr II

e:|-3-3333-333-0-0000-000-0-0000-0000-0000-000-|
B:|-0-0000-000-5-5555-555-0-0000-0000-0000-000-|
G:|-0-0000-000-5-5555-555-0-0000-0000-0000-000-|
D:|-0-0000-000-5-5555-555-2-2222-2222-2222-222-|
A:|-2-2222-222-x-xxxx-xxx-2-2222-2222-2222-222-|
E:|-3-3333-333-3-3333-333-0-0000-0000-0000-000-|


e:|-3-3333-333-0-0000-000-x-xxxx-xxxx-xxxx-xxx-|
B:|-0-0000-000-5-5555-555-0-0000-0000-0000-000-|
G:|-0-0000-000-5-5555-555-0-0000-0000-0000-000-|
D:|-0-0000-000-5-5555-555-1-1111-1111-1111-111-|
A:|-2-2222-222-x-xxxx-xxx-3-3333-3333-3333-333-|
E:|-3-3333-333-3-3333-333-0-0000-0000-0000-000-|

Verse II (To Carry On)

Gtr I

Just strum these chords, I'm not sure on how many times you'll have to figure it out yourself

e:|----|----|
B:|----|----|
G:|-16-|-12-|
D:|-x--|-x--|
A:|-14-|-10-|
E:|----|----|

Gtr II

e:|-0-0000-0000-0000-000-x-xxxx-xxxx-xxxx-xxx-|
B:|-0-0000-0000-0000-000-0-0000-0000-0000-000-|
G:|-0-0000-0000-0000-000-0-0000-0000-0000-000-| (x2)
D:|-2-2222-2222-2222-222-1-1111-1111-1111-111-|
A:|-2-2222-2222-2222-222-3-3333-3333-3333-333-|
E:|-0-0000-0000-0000-000-0-0000-0000-0000-000-|

Chorus

Gtr I

e:|----------------------------------------------------------------------|
B:|----------------------------------------------------------------------|
G:|-19-191919-16-161616-14-14/17-16/14-12-121212/14-141414/16-161616-12~-|
D:|-x--x-x-x--x--x-x-x--x--x--x--x--x--x--x-x-x--x--x-x-x--x--x-x-x--x---|
A:|-17-171717-14-141414-12-12/15-14/12-10-101010/12-121212/14-141414-10~-|
E:|----------------------------------------------------------------------|

e:|----------------------------------------------------|
B:|----------------------------------------------------|
G:|-17-1616-1212~-17-1616-1212-9-999-7-777-12-12121212-|
D:|-x--x-x--x-x---x--x-x--x-x--x-xxx-x-xxx-x--x-x-x-x--|
A:|-15-1414-1010~-15-1414-1010-7-777-5-555-10-10101010-|
E:|----------------------------------------------------|

e:|-------------------------|
B:|-------------------------|
G:|-9-999-7-777-12-12121212-|
D:|-x-xxx-x-xxx-x--x-x-x-x--|
A:|-7-777-5-555-10-10101010-|
E:|-------------------------|

Gtr II

e:|-3-3333-333-2-2222-222-0-0000-0000-0000-000-|
B:|-0-0000-000-3-3333-333-0-0000-0000-0000-000-|
G:|-0-0000-000-2-2222-222-0-0000-0000-0000-000-|
D:|-0-0000-000-x-xxxx-xxx-2-2222-2222-2222-222-|
A:|-2-2222-222-2-2222-222-2-2222-2222-2222-222-|
E:|-3-3333-333------------0-0000-0000-0000-000-|

e:|-0-0000-000-0-0000-000-0-0000-0000-0000-000-|
B:|-1-1111-111-2-2222-222-1-1111-1111-1111-111-|
G:|-0-0000-000-2-2222-222-0-0000-0000-0000-000-|
D:|-2-2222-222-2-2222-222-2-2222-2222-2222-222-|
A:|-3-3333-333-0-0000-000-x-xxxx-xxxx-xxxx-xxx-|
E:|-----------------------0-0000-0000-0000-000-|

Bridge (Did we all fall down?) (x2)

e:|----------------------------------------------------|
B:|----------------------------------------------------|
G:|-171717171717-161616161616-141414141414141414141414-|
D:|-x-x-x-x-x-x--x-x-x-x-x-x--x-x-x-x-x-x-x-x-x-x-x-x--|
A:|-151515151515-141414141414-121212121212121212121212-|
E:|----------------------------------------------------|

e:|--------------------------------------------------|
B:|--------------------------------------------------|
G:|-17171717/19-16161616/19-141414141414141414141414-|
D:|-x-x-x-x--x--x-x-x-x--x--x-x-x-x-x-x-x-x-x-x-x-x--|
A:|-15151515/17-14141414/17-121212121212121212121212-|
E:|--------------------------------------------------|

Solo

e:|-----------------------------|
B:|-----------------------------|
G:|-------12-14p12-14^16r14-12~-| (x2)
D:|-12h14-----------------------|
A:|-----------------------------|
E:|-----------------------------|

e:|-----------------------------------------------|
B:|-------------------------------------15-17-----|
G:|-14^16r14-12-14-14^16r14-12-14-14/16-------14~-|
D:|-----------------------------------------------|
A:|-----------------------------------------------|
E:|-----------------------------------------------|

e:|-------------------------------------------------|
B:|----15-17p15----15-17p15----15-19p15----15-17p15-|
G:|-16----------16----------16----------15----------|
D:|-------------------------------------------------|
A:|-------------------------------------------------|
E:|-------------------------------------------------|

e:|-------------------------------------------|
B:|----12-13----13-15p13----12-13p12-10-------|
G:|-14-------14----------14-------------12-11-|
D:|-------------------------------------------|
A:|-------------------------------------------|
E:|-------------------------------------------|

Repeat Chorus

Outro:

Gtr I

e:|-<5>-<7>~-----------<5>-<7>~------<12>~-|
B:|----------<5>-<7>~------------<12>------|
G:|----------------------------------------| 
D:|----------------------------------------|
A:|----------------------------------------|
E:|----------------------------------------|

e:|-<5>-<7>~-|
B:|----------|
G:|----------|
D:|----------|
A:|----------|
E:|----------|

Gtr II

e:|------------------------------|
B:|-0-000-0-000-1212-1010-88-777-|
G:|-x-xxx-x-xxx-x-x--x-x--xx-xxx-|
D:|-9-999-9-999-9-9--9-9--99-999-|
A:|-7-777-7-777-7-7--7-7--77-777-|
E:|-0-000-0-000-0-0--0-0--00-000-|

e:|----33----33----33----33-|
B:|-0-000-0-000-0-000-0-000-|
G:|-0-000-0-000-0-000-0-000-|
D:|-1-111-1-111-1-111-1-111-|
A:|-3-333-3-333-3-333-3-333-|
E:|-0-000-0-000-0-000-0-000-|

e:|------------------------------|
B:|-0-000-0-000-1212-1010-88-777-|
G:|-x-xxx-x-xxx-x-x--x-x--xx-xxx-|
D:|-9-999-9-999-9-9--9-9--99-999-|
A:|-7-777-7-777-7-7--7-7--77-777-|
E:|-0-000-0-000-0-0--0-0--00-000-|

e:|-x--|
B:|-0~-|
G:|-0~-|
D:|-1~-|
A:|-3~-|
E:|-0~-|



Suggest correction
comments
print report bad tab
42 comments total. Showing first comments.
0 reply
Liam 1,995 Mar 27, 2006 06:23 AM

it shouldnt be that difficult to work out the rhythm if you have the lead, just realte it back to the individual notes and then you have the key the song is written in and therfore the chords -then for ocataves it cudnt be easier -just see what note octave your playing and play the same note power/bar chord as that

0 reply
ilovegerardway 10 Mar 27, 2006 05:18 PM

holy crap thank you i'ver been trying to figure it out but you did it for me.
i love you. :P
i've been looking everywhere for it.

-1 reply
non conformist1 16 Mar 28, 2006 06:26 AM

this is all wrong and i agree wid liam it should b easy to get the ryhthm which i no anyway would not just b barre or power chords because mcr think of better riffs than that

guest
You may want to rate the tab now too:
select rating
Wanna post a correction for this tab? Suggest correction