Oops, an error
Loading. Please wait.

Desert Song Tab

version 2
version 2

Interactive

16,435 views 42 this week
8 commentsread comments
1 2 3 4 5
excellent!
x 7
add to favorites
launch autoscroll
font size
0
reset
how to read this tab
guitar tuner
Autoscroll
slow
fast
+/-
esc
set tempo
stop
Help us to improve Ultimate-Guitar.com Take our survey!
×
Difficulty
intermediate
Im so sure this is almost all correct

Ray Toro Guitar 1
Frank Iero Guitar 2

(I only know the intro for Frank)
Tabbed By:Mitch Craig

*=Harmonics
/=Slide up
=Slide Down


Intro Guitar 1
|-------------7-7-5-5-3-3-----------3-333--------|
|-0-000-0-000-0-0-0-0-0-0-0-000-000-0-000-0-000--|
|-0-000-0-000-------------0-000-000-0-000-0-000--|
|-2-222-2-222-------------1-111-111-1-111-1-111--|
|-2-222-2-222-------------3-333-333-3-333-3-333--|
|-0-000-0-000------------------------------------|


Guitar 1
|-3----------|
|------------|
|---0--------|
|-----1---5--|
|-------3----|
|------------|


Guitar 2
|-<5>----------------<5>-----------12~~--|
|-----<5>~-<5>-<7>~------<5>~---12~~-----|
|----------------------------------------|
|----------------------------------------|
|----------------------------------------|
|----------------------------------------|

Verse

|-----------------------------------------|
|-----------------------------------------|
|-12-121212-11-111111/14-141414-11-111111-|
|-x--x-x-x--x--x-x-x--x--x-x-x--x--x-x-x--|
|-10-101010-9--9-9-9-/12-121212-9--9-9-9--|
|-----------------------------------------|


Pre-Chorus

|-----------------------------------------|
|-----------------------------------------|
|-16-161616/14-141414-17/171717/14-141414-|
|-x--x-x-x--x--x-x-x--x--x-x-x--x--x-x-x--|
|-14-141414/12-121212-15/151515/12-121212-|
|-----------------------------------------|

|-----------------------------------------|
|-----------------------------------------|
|-12-121212-11-111111/14-141414-11-111111-|
|-x--x-x-x--x--x-x-x--x--x-x-x--x--x-x-x--|
|-10-101010-9--9-9-9-/12-121212-9--9-9-9--|
|-----------------------------------------|

Verse 2
|------------------------|
|------------------------|
|-16------------------12-|
|-x-------------------x--|   Strummed I dont know the strumming
|-14------------------10-|
|------------------------|


Chorus

|----------------------------------------------------------------------|
|----------------------------------------------------------------------|
|-19-191919-16-161616-14-14/17-16/14-12-121212/14-141414/16-161616-12--|
|-x--x-x-x--x--x-x-x--x--x--x--x--x--x--x-x-x--x--x-x-x--x--x-x-x--x---|
|-17-171717-14-141414-12-12/15-14/12-10-101010/12-121212/14-141414-10--|
|----------------------------------------------------------------------|

|----------------------------------------------------|
|----------------------------------------------------|
|-17-1616-1212--17-1616-1212-9-999-7-777-12-12121212-|
|-x--x-x--x-x---x--x-x--x-x--x-xxx-x-xxx-x--x-x-x-x--|
|-15-1414-1010--15-1414-1010-7-777-5-555-10-10101010-|
|----------------------------------------------------|

|-------------------------|
|-------------------------|
|-9-999-7-777-12-12121212-|
|-x-xxx-x-xxx-x--x-x-x-x--|
|-7-777-5-555-10-10101010-|
|-------------------------|

Bridge

|----------------------------------------------------|
|----------------------------------------------------|
|-171717171717-161616161616-141414141414141414141414-|
|-x-x-x-x-x-x--x-x-x-x-x-x--x-x-x-x-x-x-x-x-x-x-x-x--|
|-151515151515-141414141414-121212121212121212121212-|
|----------------------------------------------------|

|--------------------------------------------------|
|--------------------------------------------------|
|-17171717/19-16161616/19-141414141414141414141414-|
|-x-x-x-x--x--x-x-x-x--x--x-x-x-x-x-x-x-x-x-x-x-x--|
|-15151515/17-14141414/17-121212121212121212121212-|
|--------------------------------------------------|

Solo

|---------------------------|
|---------------------------|
|-------12-14p12-14^16r412~-| (x2)
|-12h14---------------------|
|---------------------------|
|---------------------------|

|--------------------------------------------------|
|-------------------------------------------17-----|
|-14^16r14-12-14-14^16r14-12-14-14/16-16/18----14~-|
|--------------------------------------------------|
|--------------------------------------------------|
|--------------------------------------------------|

|-------------------------------------------------|
|----15-17p15----15-17p15----15-19p15----15-17p15-|
|-16----------16----------16----------15----------|
|-------------------------------------------------|
|-------------------------------------------------|
|-------------------------------------------------|

|----------------------------------------|
|----14-15----14-15p14----14-15----------|
|-16-------16----------16-------16-14-12-|
|----------------------------------------|
|----------------------------------------|
|----------------------------------------|


Outro
|-<5>----------------<5>-----------12~~--|
|-----<5>~-<5>-<7>~------<5>~---12~~-----|
|----------------------------------------|
|----------------------------------------|
|----------------------------------------|
|----------------------------------------|

|-<5>~~---------|
|-----<5>~~~----|
|---------------|
|---------------|
|---------------|
|---------------|
Suggest correction
comments
print report bad tab
8 comments total. Showing first comments. show 1 bad comment
0 reply
river_of_souls 64 wrote on June 5 2006, 06:27 pm

This is my tab


Mother ****er

+2 reply
skatermaggot 20 wrote on July 11 2006, 08:54 pm

hey this is okay..4 stars...um and to aperfectshot176 on this song..ray is playing the acoustic guitar....and frank is playing the electric..you can actually tell when you listen carefully..ray does things on his guitar..that frank doesnt..so you can easily tell which person is playing which part..by the way they play their guitar...^_^

guest
You may want to rate the tab now too:
select rating
Wanna post a correction for this tab? Suggest correction