Oops, an error
Loading. Please wait.

Desert Song Tab

version 3
version 3

Interactive

2,111 views 6 this week
2 commentsread comments
1 2 3 4 5
please rate
add to favorites
launch autoscroll
font size
0
reset
how to read this tab
guitar tuner
Autoscroll
slow
fast
+/-
esc
set tempo
stop
Help us to improve Ultimate-Guitar.com Take our survey!
×
Author
Difficulty
N0th 36
intermediate
 Intro

Gtr. I (Acoustic)
e|-0---------0-------------------------------------|-----------------------------------|
B|-0---------0----------8/10-10-10-10-10-8-7-7-7-7-|-8-8-8-8-8-8-8-8-8-8-8-8-8-8-8-8-8-|
G|-0-0-0-0-0-0-0-0-0-0--x----x--x--x--x--x-x-x-x-x-|-0-0-0-0-0-0-0-0-0-0-0-0-0-0-0-0-0-|
D|-9-9-9-9-9-9-9-9-9-9--x----x--x--x--x--x-x-x-x-x-|-x-x-x-x-x-x-x-x-x-x-x-x-x-x-x-x-x-| (2 times) 
A|-7-7-7-7-7-7-7-7-7-7--7/9--9--9--9--9--7-5-5-5-5-|-6-6-6-6-6-6-6-6-6-6-6-6-6-6-6-6-6-|
E|-0-0-0-0-0-0-0-0-0-0-----------------------------|-8-8-8-8-8-8-8-8-8-8-8-8-8-8-8-8-8-|


e|---------|
B|-8-------|
G|--0------|
D|---0-----|
A|----5-6--|
E|-------8-|

   Verse

We hold in our hearts...

e|-0-0-0-0-0-0-0-0-0-0-0-0-0-0-0-0-0-0-0-0-|-x-x-x-x-x-x-x-x-x-x-x-x-x-x-x-x-x-x-x-x-|
B|-0-0-0-0-0-0-0-0-0-0-0-0-0-0-0-0-0-0-0-0-|-0-0-0-0-0-0-0-0-0-0-0-0-0-0-0-0-0-0-0-0-|
G|-0-0-0-0-0-0-0-0-0-0-0-0-0-0-0-0-0-0-0-0-|-0-0-0-0-0-0-0-0-0-0-0-0-0-0-0-0-0-0-0-0-|
D|-2-2-2-2-2-2-2-2-2-2-2-2-2-2-2-2-2-2-2-2-|-1-1-1-1-1-1-1-1-1-1-1-1-1-1-1-1-1-1-1-1-| (2 times)
A|-2-2-2-2-2-2-2-2-2-2-2-2-2-2-2-2-2-2-2-2-|-3-3-3-3-3-3-3-3-3-3-3-3-3-3-3-3-3-3-3-3-|
E|-0-0-0-0-0-0-0-0-0-0-0-0-0-0-0-0-0-0-0-0-|-----------------------------------------|

   Pre-Chorus

Well after all...

e|-3-3-3-3-3-3-3-3-3-3-3-3-3-3-3-3-3-3-3-3-|-0-0-0-0-0-0-0-0-0-0-0-0-0-0-0-0-0-0-0-0-|
B|-0-0-0-0-0-0-0-0-0-0-0-0-0-0-0-0-0-0-0-0-|-1-1-1-1-1-1-1-1-1-1-1-1-1-1-1-1-1-1-1-1-|
G|-0-0-0-0-0-0-0-0-0-0-0-0-0-0-0-0-0-0-0-0-|-0-0-0-0-0-0-0-0-0-0-0-0-0-0-0-0-0-0-0-0-|
D|-0-0-0-0-0-0-0-0-0-0-0-0-0-0-0-0-0-0-0-0-|-2-2-2-2-2-2-2-2-2-2-2-2-2-2-2-2-2-2-2-2-| (2 times)
A|-2-2-2-2-2-2-2-2-2-2-2-2-2-2-2-2-2-2-2-2-|-3-3-3-3-3-3-3-3-3-3-3-3-3-3-3-3-3-3-3-3-|
E|-3-3-3-3-3-3-3-3-3-3-3-3-3-3-3-3-3-3-3-3-|-----------------------------------------|

To carry on...

e|-0-0-0-0-0-0-0-0-0-0-0-0-0-0-0-0-0-0-0-0-|-0-0-0-0-0-0-0-0-0-0-0-0-0-0-0-0-0-0-0-0-|
B|-0-0-0-0-0-0-0-0-0-0-0-0-0-0-0-0-0-0-0-0-|-1-1-1-1-1-1-1-1-1-1-1-1-1-1-1-1-1-1-1-1-|
G|-0-0-0-0-0-0-0-0-0-0-0-0-0-0-0-0-0-0-0-0-|-0-0-0-0-0-0-0-0-0-0-0-0-0-0-0-0-0-0-0-0-|
D|-2-2-2-2-2-2-2-2-2-2-2-2-2-2-2-2-2-2-2-2-|-2-2-2-2-2-2-2-2-2-2-2-2-2-2-2-2-2-2-2-2-| (2 times)
A|-2-2-2-2-2-2-2-2-2-2-2-2-2-2-2-2-2-2-2-2-|-3-3-3-3-3-3-3-3-3-3-3-3-3-3-3-3-3-3-3-3-|
E|-0-0-0-0-0-0-0-0-0-0-0-0-0-0-0-0-0-0-0-0-|-----------------------------------------|

   Chorus

Well tonight...

e|-3-3-3-3-3-3-3-3-3-3--0-0-0-0-0-0-0-0-0-0-|-0-0-0-0-0-0-0-0-0-0-0-0-0-0-0-0-0-0-0-0-|
B|-0-0-0-0-0-0-0-0-0-0--0-0-0-0-0-0-0-0-0-0-|-0-0-0-0-0-0-0-0-0-0-0-0-0-0-0-0-0-0-0-0-|
G|-0-0-0-0-0-0-0-0-0-0--2-2-2-2-2-2-2-2-2-2-|-0-0-0-0-0-0-0-0-0-0-0-0-0-0-0-0-0-0-0-0-|
D|-0-0-0-0-0-0-0-0-0-0--0-0-0-0-0-0-0-0-0-0-|-2-2-2-2-2-2-2-2-2-2-2-2-2-2-2-2-2-2-2-2-|
A|-2-2-2-2-2-2-2-2-2-2--0-0-0-0-0-0-0-0-0-0-|-2-2-2-2-2-2-2-2-2-2-2-2-2-2-2-2-2-2-2-2-|
E|-3-3-3-3-3-3-3-3-3-3--2-2-2-2-2-2-2-2-2-2-|-0-0-0-0-0-0-0-0-0-0-0-0-0-0-0-0-0-0-0-0-|

e|-0-0-0-0-0-0-0-0-0-0--0-0-0-0-0-0-0-0-0-0-|-0-0-0-0-0-0-0-0-0-0-0-0-0-0-0-0-0-0-0-0-|
B|-1-1-1-1-1-1-1-1-1-1--0-0-0-0-0-0-0-0-0-0-|-0-0-0-0-0-0-0-0-0-0-0-0-0-0-0-0-0-0-0-0-|
G|-0-0-0-0-0-0-0-0-0-0--0-0-0-0-0-0-0-0-0-0-|-2-2-2-2-2-2-2-2-2-2-2-2-2-2-2-2-2-2-2-2-|
D|-2-2-2-2-2-2-2-2-2-2--2-2-2-2-2-2-2-2-2-2-|-2-2-2-2-2-2-2-2-2-2-2-2-2-2-2-2-2-2-2-2-|
A|-3-3-3-3-3-3-3-3-3-3--2-2-2-2-2-2-2-2-2-2-|-0-0-0-0-0-0-0-0-0-0-0-0-0-0-0-0-0-0-0-0-|
E|----------------------0-0-0-0-0-0-0-0-0-0-|-0-0-0-0-0-0-0-0-0-0-0-0-0-0-0-0-0-0-0-0-|

Well tonight...

e|-3-3-3-3-3-3-3-3-3-3--0-0-0-0-0-0-0-0-0-0-|-0-0-0-0-0-0-0-0-0-0-0-0-0-0-0-0-0-0-0-0-|
B|-0-0-0-0-0-0-0-0-0-0--0-0-0-0-0-0-0-0-0-0-|-0-0-0-0-0-0-0-0-0-0-0-0-0-0-0-0-0-0-0-0-|
G|-0-0-0-0-0-0-0-0-0-0--2-2-2-2-2-2-2-2-2-2-|-0-0-0-0-0-0-0-0-0-0-0-0-0-0-0-0-0-0-0-0-|
D|-0-0-0-0-0-0-0-0-0-0--0-0-0-0-0-0-0-0-0-0-|-2-2-2-2-2-2-2-2-2-2-2-2-2-2-2-2-2-2-2-2-|
A|-2-2-2-2-2-2-2-2-2-2--0-0-0-0-0-0-0-0-0-0-|-2-2-2-2-2-2-2-2-2-2-2-2-2-2-2-2-2-2-2-2-|
E|-3-3-3-3-3-3-3-3-3-3--2-2-2-2-2-2-2-2-2-2-|-0-0-0-0-0-0-0-0-0-0-0-0-0-0-0-0-0-0-0-0-|

e|-0-0-0-0-0-0-0-0-0-0--0-0-0-0-0-0-0-0-0-0-|-0-0-0-0-0-0-0-0-0-0-0-0-0-0-0-0-0-0-0-0-|
B|-1-1-1-1-1-1-1-1-1-1--0-0-0-0-0-0-0-0-0-0-|-0-0-0-0-0-0-0-0-0-0-0-0-0-0-0-0-0-0-0-0-|
G|-0-0-0-0-0-0-0-0-0-0--0-0-0-0-0-0-0-0-0-0-|-2-2-2-2-2-2-2-2-2-2-2-2-2-2-2-2-2-2-2-2-|
D|-2-2-2-2-2-2-2-2-2-2--2-2-2-2-2-2-2-2-2-2-|-2-2-2-2-2-2-2-2-2-2-2-2-2-2-2-2-2-2-2-2-|
A|-3-3-3-3-3-3-3-3-3-3--2-2-2-2-2-2-2-2-2-2-|-0-0-0-0-0-0-0-0-0-0-0-0-0-0-0-0-0-0-0-0-|
E|----------------------0-0-0-0-0-0-0-0-0-0-|-0-0-0-0-0-0-0-0-0-0-0-0-0-0-0-0-0-0-0-0-|

   Bridge

Did we all fall down?...

e|-0-0-0-0-0-0-0-0-0-0-0-0-0-0-0-0-0-0-0-0-|-0-0-0-0-0-0-0-0-0-0-0-0-0-0-0-0-0-0-0-0-|\
B|-0-0-0-0-0-3-3-3-3-3-0-0-0-0-0-1-1-1-1-1-|-0-0-0-0-0-3-3-3-3-3-0-0-0-0-0-1-1-1-1-1-| \
G|-2-2-2-2-2-2-2-2-2-2-2-2-2-2-2-2-2-2-2-2-|-2-2-2-2-2-2-2-2-2-2-2-2-2-2-2-2-2-2-2-2-|  \
D|-2-2-2-2-2-2-2-2-2-2-2-2-2-2-2-2-2-2-2-2-|-2-2-2-2-2-2-2-2-2-2-2-2-2-2-2-2-2-2-2-2-|   \
A|-0-0-0-0-0-0-0-0-0-0-0-0-0-0-0-0-0-0-0-0-|-0-0-0-0-0-0-0-0-0-0-0-0-0-0-0-0-0-0-0-0-|    \
E|-----------------------------------------|-----------------------------------------|     \
                                                                                            >(2 times)
e|-0-0-0-0-0-0-0-0-0-0-0-0-0-0-0-0-0-0-0-0-|-0-0-0-0-0-0-0-0-0-0-0-0-0-0-0-0-0-0-0-0-|     /
B|-0-0-0-0-0-3-3-3-3-3-0-0-0-0-0-1-1-1-1-1-|-0-0-0-0-0-3-3-3-3-3-0-0-0-0-0-1-1-1-1-1-|    /
G|-0-0-0-0-0-0-0-0-0-0-0-0-0-0-0-0-0-0-0-0-|-0-0-0-0-0-0-0-0-0-0-0-0-0-0-0-0-0-0-0-0-|   /
D|-2-2-2-2-2-2-2-2-2-2-2-2-2-2-2-2-2-2-2-2-|-2-2-2-2-2-2-2-2-2-2-2-2-2-2-2-2-2-2-2-2-|  /
A|-3-3-3-3-3-3-3-3-3-3-3-3-3-3-3-3-3-3-3-3-|-3-3-3-3-3-3-3-3-3-3-3-3-3-3-3-3-3-3-3-3-| /
E|-----------------------------------------|-----------------------------------------|/

Chorus
Suggest correction new What's this?
You can suggest a correction to this tab. Community and Mods will review your correction and vote to approve or reject it.
comments
We did not receive enough feedback on this tab! Please rate:
print report bad tab
1 2 3 4 5
2 comments total.
0 reply
Guitarmaster12 108 wrote on February 19 2007, 12:24 pm

youre missing a lot of the song, liike the electric part and the solo.three stars ***

0 reply
acousticdude95 11 wrote on August 25 2008, 05:07 pm

good tab, if you play it in acoustic...

guest
You may want to rate the tab now too:
select rating
Please do not post tabs as comments. Select "correction" instead!