Oops, an error
Loading. Please wait.

Desert Song Tab

version 4
version 4

Interactive

1,309 views 1 this week
2 commentsread comments
1 2 3 4 5
3 more votes to show rating
add to favorites
launch autoscroll
font size
0
reset
how to read this tab
guitar tuner
Autoscroll
slow
fast
+/-
esc
set tempo
stop
Help us to improve Ultimate-Guitar.com Take our survey!
×
Author
Difficulty
intermediate
hii dudes
this is acoustic version

tabbed by hugh

tuning:standard

gtr 1:frank iero
gtr 2:ryan toro

h:hammer on
p:pull off
br:bend and release
/:slide to
():natural harmonic
x:string mute

intro:
i dont know how many times you have to strum each chord

gtr 1

e --------------------0--1----|
B -0----12-10-8-7-----0--0----|
G -x----x--x--x-x-----0--0----|
D -7----7--7--7-7-----1--1----|
A -9----9--9--9-9-----3--3----|
E -0----0--0--0-0-----0--0----|

e --------------------0---1--------|
B -0----12-10-8-7-----0------------|
G -x----x--x--x-x-----0-----0------|
D -7----7--7--7-7-----1------1-----|
A -9----9--9--9-9-----3-------3-3--|
E -0----0--0--0-0-----0--------0---|

gtr 2 (2x)

e ----(5)------------(5)---------(12)--|
B -------(5)-(5)-(7)---(5)---(12)------|
G -------------------------------------|
D -------------------------------------|
A -------------------------------------|
E -------------------------------------|

verse:

gtr 1            (well after all)

e 0---x-----------3------0---3------x--|
B 0---0-----------0---5--0---0---5--0--|
G 0---0-----------0---5--0---0---5--0--|
D 2---1-----------0---5--2---0---5--1--|
A 2---3-----------2---3--2---2---3--3--|
E 0---0-----------3---3--0---3---3--0--|

gtr 2                       (well after all) (2x)

e -3--2--5--2--2--3--5--2----7--5--8--5---3--2--5--2--|
B -0--0--0--0--0--0--0--0----0--0--0--0---0--0--0--0--|
G -0--0--0--0--0--0--0--0----0--0--0--0---0--0--0--0--|
D ----------------------------------------------------|
A ----------------------------------------------------|
E ----------------------------------------------------|

(to carry on)

gtr 1

e -0--x---------------|
B -0--0---------------|  just strum these chords
G -0--0---------------|
D -2--1---------------|
A -2--3---------------|
E -0--0---------------|

gtr 2

e -7--3------------------------|
B -0--0------------------------|  just strum these chords
G -0--0------------------------|
D -----------------------------|
A -----------------------------|
E -----------------------------|

chorus

gtr 1 (2x)                 before bridge play this:

e -3--2--0---0--0--0----------x--0-----|
B -0--3--0---1--2--1----------0--1-----|
G -0--2--0---0--2--0----------0--0-----|
D -0--0--2---2--2--2----------1--2-----|
A -2--0--2---3----------------3--------|
E -3-----0--------------------0--------|

gtr 2 i know this is not what ryan plays in the song
but i think this sounds pretty cool
you can play this on acoustic gtr
i dont know how many times you have to strum each chord

e -3--3-----------------------------------------------------------|
B -3--0-----------------------------------------------0-0-0-0-0-0-|
G -0--0--2--5--4--0--2--4--0--5--4--2--0--5--4--2--0--0-0-0-0-0-0-|
D -0--0--x--x--x--x--x--x--x--x--x--x--x--x--x--x--x--2-0-x-2-0-x-|
A -2--2--2--2--2--2--2--2--2--2--2--2--2--2--2--2--2--2-2-2-2-2-2-|
E -3--3-----------------------------------------------------------|

before bridge gtr 2 (2x)

e ------------------|
B -0--0--0----------|
G -0--0--0----------|
D -2--0--x----------|
A -2--2--2----------|
E ------------------|

bridge:

gtr 1 (4x)

e -x---0----|
B -0---1----|
G -0---0----|
D -1---2----|
A -3--------|
E ----------|

gtr 2 (2x)

e ----------------------------|
B ----------------------------|
G -5--4--2--5/7--4/7--2-------|
D -x--x--0--x----x----0-------|
A -3--2--0--3/5--2/5--0-------|
E ----------------------------|

solo:

gtr 1 under solo

   (from the lights)  (from backstage)
e -x-------------------0------|
B -0-------------------1------|
G -0-------------------0------|
D -1-------------------2------|
A -3--------------------------|
E ----------------------------|

gtr 2

e ----3-5-3-5br-3---3-5-3-5br-3-5br-3-5-5br-3-3-5-5/7-5--|
B -3h5-----------3h5-------------------------------------|
G -------------------------------------------------------|
D -------------------------------------------------------|
A -------------------------------------------------------|
E -------------------------------------------------------|

e ---10-10h12p10---10-10h12p10---10-10h14p10--10-10h12p10-|
B -12------------12------------12-----------12------------|
G --------------------------------------------------------|
D --------------------------------------------------------|
A --------------------------------------------------------|
E --------------------------------------------------------|

e ---9-9h10p9--10-10h12p10--9-9h10p9----------|
B -12--------12-----------12---------12-10-8--|
G --------------------------------------------|
D --------------------------------------------|
A --------------------------------------------|
E --------------------------------------------|

repeat chorus
repeat before bridge
repeat intro

end with:

gtr 1
let it ring
e -x-----------|
B -0-----------|
G -0-----------|
D -1-----------|
A -3-----------|
E -0-----------|

gtr 2
let it ring
e -(5)---------|
B ----(5)------|
G -------------|
D -------------|
A -------------|
E -------------|
Suggest correction
Give kudos to tab author, rate the tab!
1 2 3 4 5
comments
print report bad tab
2 comments total.
+1 reply
KimberleyMCRmy 10 Jan 10, 2008 04:26 PM

Please get Ray Toro's name right...

Also "acoustic version" ...... When has it NOT been acoustic?

0 reply
makin 41 Jan 09, 2009 09:34 PM

who is ryan?

guest
You may want to rate the tab now too:
select rating
Wanna post a correction for this tab? Suggest correction