Oops, an error
Loading. Please wait.

Desolation Row Tab

version 2
version 2

Whole song

Interactive

Video

5,055 views 3 this week
no commentswrite comment
1 2 3 4 5
worth learning
x 4
add to favorites
launch autoscroll
font size
0
reset
how to read this tab
guitar tuner
Autoscroll
slow
fast
+/-
esc
set tempo
stop
Help us to improve Ultimate-Guitar.com Take our survey!
×
Contributor
----------------------------------------------------------------------------
                             DESOLATION ROW - My Chemical Romance
----------------------------------------------------------------------------

Tabbed by: Theresa (myxchemromance)
Email: myxchemromance@hotmail.com

Tuning: Standard

Intro:
e|-------------------------------------------------------------------------|
B|-------------------------------------------------------------------------|
G|-------------------------------------------------------------------------|
D|-------------------------------------------------------------------------|
A|--2-2-2222---------------------------------------------------------------|
E|--0-0-0000---------------------------------------------------------------|

Verse:

e|-------------------------------------------------------------------------|
B|-------------------------------------------------------------------------|
G|-------------------------------------------------------------------------|
D|-------------------77777777----------99999999-99999999-77777777----------|
A|-22222222-22222222-77777777-22222222-99999999-99999999-77777777-22222222-|
E|-00000000-00000000-55555555-00000000-77777777-77777777-55555555-00000000-|

e|-------------------------------------------------------------------------|
B|-------------------------------------------------------------------------|
G|-------------------------------------------------------------------------|
D|-------------------77777777----------99999999-99999999-77777777----------|
A|-22222222-22222222-77777777-22222222-99999999-99999999-77777777-22222222-|
E|-00000000-00000000-55555555-00000000-77777777-77777777-55555555-00000000-|

Chorus:
e|-------------------------------------------------------------------------|
B|-------------------------------------------------------------------------|
G|-------------------------------------------------------------------------|
D|-77777777-77777777----------77777777-77777777-77777777-77777777----------|
A|-77777777-77777777-22222222-77777777-77777777----------------------------|
E|-55555555-55555555-00000000-55555555-55555555-77777777-55555555----------|

e|-------------------------------------------------------------------------|
B|-------------------------------------------------------------------------|
G|-------------------------------------------------------------------------|
D|-8/9-99--8/9-99-8/9-99---------------------------------------------------|
A|-6/7-77--6/7-77-6/7-77---------------------------------------------------|
E|-------------------------------------------------------------------------|

Verse:

e|-------------------------------------------------------------------------|
B|-------------------------------------------------------------------------|
G|-------------------------------------------------------------------------|
D|-------------------77777777----------99999999-99999999-77777777----------|
A|-22222222-22222222-77777777-22222222-99999999-99999999-77777777-22222222-|
E|-00000000-00000000-55555555-00000000-77777777-77777777-55555555-00000000-|

e|-------------------------------------------------------------------------|
B|-------------------------------------------------------------------------|
G|-------------------------------------------------------------------------|
D|-------------------77777777----------99999999-99999999-77777777----------|
A|-22222222-22222222-77777777-22222222-99999999-99999999-77777777-22222222-|
E|-00000000-00000000-55555555-00000000-77777777-77777777-55555555-00000000-|

Chorus:
e|-------------------------------------------------------------------------|
B|-------------------------------------------------------------------------|
G|-------------------------------------------------------------------------|
D|-77777777-77777777----------77777777-77777777-77777777-77777777----------|
A|-77777777-77777777-22222222-77777777-77777777----------------------------|
E|-55555555-55555555-00000000-55555555-55555555-77777777-55555555----------|

Solo:

e|-------------------------------------------------------------------------|
B|-------------------------------------------------------------------------|
G|--9-11------9-11-13/16--9-9-9--9h11p9--9-9---14-14-14-16-13-13-13-13-----|
D|-------11-9--------------------------------------------------------------|
A|-------------------------------------------------------------------------|
E|-------------------------------------------------------------------------|

e|-------------------------------------------------------------------------|
B|-------------------------------------------------------------------------|
G|-14-13-11-11~-11~-11^-11-9-9-9-11-9-8^-8-8^-8-6-4------------------------|
D|-------------------------------------------------------------------------|
A|-------------------------------------------------------------------------|
E|-------------------------------------------------------------------------|

e|-------------------------------------------------------------------------|
B|-------------------------------------------------------------------------|
G|-------1-4/9-13-11-9-9-9-5-2-4--13h14p13-11h13p11-9h11p9-----------------|
D|-2-2-2-------------------------------------------------------------------|
A|-------------------------------------------------------------------------|
E|-------------------------------------------------------------------------|

e|-------------------------------------------------------------------------|
B|-------------------------------------------------------------------------|
G|-8^-8-8^-8^-8^-6-6-4-----------------------------------------------------|
D|-------------------------------------------------------------------------|
A|-------------------------------------------------------------------------|
E|-------------------------------------------------------------------------|

Buildup:
e|-------------------------------------------------------------------------|
B|-------------------------------------------------------------------------|
G|-8/9-99999999-99999999---------------------------------------------------|
D|-8/9-99999999-99999999---------------------------------------------------|
A|-6/7-77777777-77777777---------------------------------------------------|
E|-------------------------------------------------------------------------|

Chorus:
e|-------------------------------------------------------------------------|
B|-------------------------------------------------------------------------|
G|-------------------------------------------------------------------------|
D|-77777777-77777777----------77777777-77777777-77777777-77777777----------|
A|-77777777-77777777-22222222-77777777-77777777----------------------------|
E|-55555555-55555555-00000000-55555555-55555555-77777777-55555555----------|

Outro:
e|-------------------------------------------------------------------------|
B|-------------------------------------------------------------------------|
G|-------------------------------------------------------------------------|
D|-------------------------------------------------------------------------|
A|-2-2-2-2-2-2-2-2-2-222222-2----------------------------------------------|
E|-0-0-0-0-0-0-0-0-0-000000-0----------------------------------------------|

| /  slide up
| ^  bend
| \  slide down
| h  hammer-on
| p  pull-off
| ~  vibrato
| +  harmonic
| x  Mute note
============================================================================
Suggest correction new What's this?
You can suggest a correction to this tab. Community and Mods will review your correction and vote to approve or reject it.
comments
print report bad tab
guest
You may want to rate the tab now too:
select rating
Please do not post tabs as comments. Select "correction" instead!