Oops, an error
Loading. Please wait.

Desolation Row Tab

version 3
version 3

Whole song

Interactive

Video

15,151 views 6 this week
3 commentsread comments
1 2 3 4 5
accurate
x 3
add to favorites
launch autoscroll
font size
0
reset
how to read this tab
guitar tuner
Autoscroll
slow
fast
+/-
esc
set tempo
stop
Help us to improve Ultimate-Guitar.com Take our survey!
×
Contributor
lao123 622
-----------------------------------------------------------------------------
                       Desolation Row - My Chemical Romance
-----------------------------------------------------------------------------

Tuning: Standard
Difficulty: Novice
Tabbed by: Liam (Lao123)
Email: the_oister@hotmail.com

This is based on the version one gutiar pro tab, but tabbed more to how I like to play 
Special thanks to Chromaticvision.

Key:
* Pinch harmonic
. Palm mute
h Hammer on
p Pull off
/ slide
b bend
~ vibrato
x Dead note
x\ Pick scrape/slide

Ray Toro: Guitar One (Pan right)
Frank Iero: Guitar Two (Pan left)

Intro

Both guitars

e--0---00-0---00-0--00-0--00--0-0-0-0-0-0-0-0----------------|
B--0---00-0---00-0--00-0--00--0-0-0-0-0-0-0-0----------------|
G--1---11-1---11-1--11-1--11--1-1-1-1-1-1-1-1----------------|
D--2---22-2---22-2--22-2--22--2-2-2-2-2-2-2-2----------------|
A--2---22-2---22-2--22-2--22--2-2-2-2-2-2-2-2----------------|
E--0---00-0---00-0--00-0--00--0-0-0-0-0-0-0-0----------------|


Verse

Guitar One

e--------------------------------------------------------------------------|
B--00000000-00000000-22222222-00000000-44444444-44444444-22222222-00000000-|
G--11111111-11111111-22222222-11111111-44444444-44444444-22222222-11111111-|
D--22222222-22222222-22222222-22222222-44444444-44444444-22222222-22222222-|x2
A--22222222-22222222-00000000-22222222-22222222-22222222-00000000-22222222-|
E--00000000-00000000----------00000000----------------------------00000000-|

Guitar 2 is the same but play power chords.

Chorus

Guitar 1
e----------------------------------------------------------------|
B-22222222-22222222-00000000-22222222-22222222-44444444-22222222-|
G-22222222-22222222-11111111-22222222-22222222-44444444-22222222-|
D-22222222-22222222-22222222-22222222-22222222-44444444-22222222-|
A-00000000-00000000-22222222-00000000-00000000-22222222-00000000-|
E-------------------00000000-------------------------------------|

Guitar 2
e---------------------------------------------------------------------|
B-1717171717171717-1717171717171717-1212121212121212-1717171717171717-|
G--x-x-x-x-x-x-x-x--x-x-x-x-x-x-x-x--x-x-x-x-x-x-x-x--x-x-x-x-x-x-x-x-|
D-1414141414141414-1414141414141414--9-9-9-9-9-9-9-9-1414141414141414-|
A---------------------------------------------------------------------|
E---------------------------------------------------------------------|


e------------------------------------|
B-1717171717171717-1919191919191919--|
G--x-x-x-x-x-x-x-x--x-x-x-x-x-x-x-x--|
D-1414141414141414-1616161616161616--|
A------------------------------------|
E------------------------------------|

Bridge (both)

e-----------------|
B-----------------|
G--8/9-99--8/9-99-|
D--8/9-99--8/9-99-| x2
A--6/7-77--6/7-77-|
E-----------------|

Verse

Guitar 1
e--------------------------------------|
B--------------------------------------|
G-------------------22222222-----------|
D-22222222-22222222-22222222-22222222--|
A-22222222-22222222-00000000-22222222--|
E-00000000-00000000----------00000000--|

Guitar 2
    ...... ........   ......   ......
e---------------------------------------|
B---------------------------------------|
G-------------------2-------------------|
D-2-----------------2-222222-2----------|
A-2-222222-22222222-0-000000-2-222222---|
E-0-000000-00000000----------0-000000---|

Guitar 1
    ......   ......   ......   .
e----------------------------------|
B----------------------------------|
G-4--------4--------2---------9-9~-|
D-4-444444-4-444444-2-222222--999~-|
A-2-222222-2-222222-0-000000--777~-|
E----------------------------------|

Guitar 2
e-------------------------------------|
B-------------------------------------|
G-4-444444-44444444-22222222----------|
D-4-444444-44444444-22222222-22222222-|
A-2-222222-22222222-00000000-22222222-|
E----------------------------00000000-|

Both guitars

    ...... ........   ......   ......
e---------------------------------------|
B---------------------------------------|
G-------------------2-------------------|
D-2-----------------2-222222-2----------|
A-2-222222-22222222-0-000000-2-222222---|
E-0-000000-00000000----------0-000000---|

e----------------------------00000000--|
B----------------------------00000000--|
G-4-444444-44444444-22222222-11111111--|
D-4-444444-44444444-22222222-22222222--|
A-2-222222-22222222-00000000-22222222--|
E----------------------------00000000--|

Chorus

Bridge

Guitar 1

e-----------------------------------------|
B-----------------------------------------|
G-7b-7b-7b-7b-9b-9b-9b-9------------------|
D------------------------9b-9b-9b-8-9--9--|
A-----------------------------------------|
E-----------------------------------------|

e----------------------------------------------|
B----------------------------------------------|
G-7b-7b-7b-7b-9b-9b-11b--11b-12b-14b--14b-14b--|
D----------------------------------------------|
A----------------------------------------------|
E----------------------------------------------|

Guitar 2

e----------------------|
B----------------------|
G-9999-8888-6666-4444--|
D-9999-8888-6666-4444--| x2
A-7777-6666-4444-2222--|
E----------------------|

Solo

Guitar 1

e----------------------------------------------------|
B---------------------10-10-1010-11b--9~--9-9-7---7--|
G-9-9-999-11-9-9-99-x---------------------------9----|
D----------------------------------------------------|
A----------------------------------------------------|
E----------------------------------------------------|

e------------------------------------------------|
B-----9---9---9--9-7-5-7-5---5-------------------|
G-11-11b-11b-11b---------------8b-8b-8b-8-6-4~---|
A------------------------------------------------|
E------------------------------------------------|

e---------------------------------------------|
B-----------------------10--------------------|
G-----------------9br~--11b-11--9~------------|
D--/9--6------6-9-------------------6-8-9-9b~-|
A--------7--7---------------------------------|
E---------------------------------------------|

e-----------------------------------------------------------------------------|
B-----------------------------------------------------------------------------|
G--13h14p13h14p13h14p13h14\11h13p11h13p11h13p11h13\9h11p9h11p9h11p9h11-8/9\8~-|
D-----------------------------------------------------------------------------|
A-----------------------------------------------------------------------------|
E-----------------------------------------------------------------------------|

e---------------------------|
B---------------------------|
G-----9---9---9-------------|
D-12-12b-12b-12b-12-11-9~---|
A---------------------------|
E---------------------------|

Guitar 2

Play guitar 1's verse 1 part two times, to the rhythm of the solo.

Bridge

Come in after 8 bars

Both guitars
   . . . .  . . . .  . . . .  . . . .
e------------------------------------------------0------|
B------------------------------------------------0------|
G-9-9-9-9--9-9-9-9--2-2-2-2--9-9-9-9--4----2--2--1------|
D-99999999-99999999-22222222-99999999-4----2--2--2--x\--|
A-77777777-77777777-00000000-77777777-2----0--0--2--x\--|
E------------------------------------------------0--x\--|

Chorus x2

Before second repeat play

e-0---0----|
B-0---0----|
G-1---0----|
D-2---0----|
A-2---0----|
E-0---0----|

Outro

e-0---00-0---00-0--00-0--00-0---0--0-|
B-0---00-0---00-0--00-0--00-0---0--2-|
G-1---11-1---11-1--11-1--11-1---1--2-|
D-2---22-2---22-2--22-2--22-2---2--2-|
A-2---22-2---22-2--22-2--22-2---2--0-|
E-0---00-0---00-0--00-0--00-0---0----|

e-0---00-0---00-0--00-0--00-0--0--0--0--0--0--0~--|
B-0---00-0---00-0--00-0--00-0--0--0--0--0--2--0~--|
G-1---11-1---11-1--11-1--11-1--1--1--1--1--2--1~--|
D-2---22-2---22-2--22-2--22-2--2--2--2--2--2--2~--|
A-2---22-2---22-2--22-2--22-2--2--2--2--2--0--2~--|
E-0---00-0---00-0--00-0--00-0--0--0--0--0-----0~--|

Guitar 1

e-0000000000000000----|
G-0000000000000000----|
B-1111111111111111----|
D-2222222222222222----|
A-2222222222222222----|
E-0000000000000000----|

Guitar 2

e--------|
B--------|
G--------|
D-x\-----|
A-x\-----|
E-x\-----|

Thanks, please rate/comment!
comments
We did not receive enough feedback on this tab! Please rate:
print report bad tab
1 2 3 4 5
3 comments total.
0 reply
lao123 622 wrote on February 6 2009, 01:32 pm

There are alot of half bends in the solo, you should be able to figure them out.

0 reply
chromaticvision 4,942 wrote on February 6 2009, 09:13 pm

dude, you shouldn't have done this without my permission...

0 reply
lao123 622 wrote on February 7 2009, 03:33 pm

Sorry, I jut thought that people without guitar pro should be able to have a 5 star tab as well.

I want to post or [tab]
guest
You may want to rate the tab now too:
select rating
Please do not post tabs as comments. Select "correction" instead!