Oops, an error
Loading. Please wait.

Desolation Row Tab

version 4
version 4

Whole song

Interactive

Video

21,173 views 21 this week
4 commentsread comments
1 2 3 4 5
accurate
x 13
add to favorites
launch autoscroll
font size
0
reset
how to read this tab
guitar tuner
Tab Pro tools
  • play this tab
  • loop segment
  • change instrument
  • show fretboard
  • metronome
×
Best way to learn
"Desolation Row"
Autoscroll
slow
fast
+/-
esc
set tempo
stop
Contributor
Song:Desolation Row
Artist:Bob Dylan
Covered by My Chemical Romance
Guitar Tabber:Ryan Manongdo/18/Vancouver, Ca
              rhyezkie@gmail.com(gmail>alk)
              no_falter0x@yahoo.com(facebook,myspace,frndster,&YM)

For any comments, questions, or suggestions; just post a comment,PM, or mail me.

Pilipino Rules!!Mabuhay ang Pilipinas\m/,

Please check out my band's profile as well=)

http://artists.ultimate-guitar.com/renovationunder/


Gtr.Legend:
b - bend
/ - slide
p - pull-off
h - hammer-on
~ - let it ring

Gtr.Tuning:Standard(Normal)

e|-0~---0~---0~---0~---0~---------|
B|-0~---0~---0~---0~---0~---------|
G|-1~---1~---1~---1~---1~---------|
D|-2~---2~---2~---2~---2~--2222---|
A|-2~---2~---2~---2~---2~--2222---|
E|-0~---0~---0~---0~---0~--0000---|

Verse
e|-0000-0000-0000---000000-0000-0000----|
B|-0000-0000-0000---000000-0000-0000----|
G|-1111-2222-1111---444444-2222-1111----| 2x
D|-2222-2222-2222---444444-2222-2222----| then
A|-2222-0000-2222---222222-0000-2222----|
E|-0000------0000---------------0000----|

-0000000------000000---0000000-00000-0000-------------------------|
-0000000------000000---0000000-00000-0000-------------------------|
-2222222-1111-222222---2222222-44444-2222---7/99--7/99--7/9999----|
-2222222-2222-222222---2222222-44444-2222---7/99--7/99--7/9999----|
-0000000-2222-000000---0000000-22222-0000---5/77--5/77--5/7777----|
---------0000-----------------------------------------------------|

Solo
Gtr.1
e|------------------|
B|------------------|
G|-99--88--66--44---| 2x
D|-99--88--66--44---|
A|-77--66--44--22---|
E|------------------|

Gtr.2
e|---------------------------------------------------------------------|
B|---------------------------------------------------------------------|
G|-9b-9b--11b-11b-------------------9b-9b--11b-11b--13b-13b--16b-16b---|
D|-----------------11b-11b--9b-9b--------------------------------------|
A|---------------------------------------------------------------------|
E|---------------------------------------------------------------------|

Gtr.1:Play Verse

Gtr.2
e|-----------------------------------------------------------------------------------------------|
B|--------------------------10-10-10-12-9-9-9-7-5-5/7b--9b--9b--9b--9-7-5-7-5---2/5-5-5p4-2h0~---|
G|-9-9-99-9-11-9---9-9-99-9-----------------------------12b-12b-12b------------------------------|
D|-----------------------------------------------------------------------------------------------|
A|-----------------------------------------------------------------------------------------------|
E|-----------------------------------------------------------------------------------------------|

e|---------------------------------------------------------------------|
B|-----------------9b--------------------------------------------------|
G|------------8h9-----9b--9------------13b--11b--9b--8b-9-9-9p8-6p4~---|
D|-2/9----6h9---------------9b-7b-9b-----------------------------------|
A|-----7b--------------------------------------------------------------|
E|---------------------------------------------------------------------|

After Solo:
e|--------------------------------------------|
B|--------------------------------------------|
G|-9-9999----------9-9999----------------9~---|
D|-9-9999--7-7777--9-9999--9-999--7-777--9~---|
A|-7-7777--7-7777--7-7777--9-999--7-777--7~---|
E|---------5-5555----------7-777--5-555-------|

Repeat Verse:

e|-0~---0~---0~---0~---0~---------|
B|-0~---0~---0~---0~---0~---------|
G|-1~---1~---1~---1~---1~---------|
D|-2~---2~---2~---2~---2~--2222---|
A|-2~---2~---2~---2~---2~--2222---|
E|-0~---0~---0~---0~---0~--0000---|

Outro:
e|--------------------------------------------------------------------------|
B|--------------------------------------------------------------------------|
G|-9~---9~---9~---9~---9~--9------9~---9~---9~---9~---9~--9-----9------9~---|
D|-9~---9~---9~---9~---9~--9-7----9~---9~---9~---9~---9~--9-77--9--77--9~---|
A|-7~---7~---7~---7~---7~--7-7----7~---7~---7~---7~---7~--7-77--7--77--7~---|
E|----0----0----0------------5-------0----0-----0-----------55-----55-------|

End...
comments
print report bad tab
4 comments total. Showing first comments.
0 reply
jdrk10 wrote on February 21 2009, 06:13 pm

Your verse seams a little off.....

0 reply
MCR_24 wrote on March 20 2009, 07:24 pm

e|-----------------------------------------------------------
B|------------------------------------------------------------
G|2------------------4----------------------------------------
D|2or7---------2-----4----------------------------------------
A|0--7---------2-----2----------------------------------------
E|---5---------0----------------------------------------------

thats for the verse just get the struming right and stuff i think its good

0 reply
MCR_24 wrote on March 20 2009, 07:30 pm

woah thats not what....shit here is wat it should have been

e|------------------------------------------------------------
B|------------------------------------------------------------
G|-----------4------------------------------------------------
D|7---2--7---4--7--2------------------------------------------
A|7---2--7---2--7--2-repeat-----------------------------------
E|5---0--5------5--0------------------------------------------

like i said those spaces have nothing to do with the struming okay

I want to post or [tab]
guest
You may want to rate the tab now too:
select rating
Please do not post tabs as comments. Select "correction" instead!