Oops, an error
Loading. Please wait.

Destroya bass

version 3
version 3

Whole song

  • I've altered it a little to make is easier for begginners to play.

Interactive

100 views 6 this week
no commentswrite comment
1 2 3 4 5
3 more votes to show rating
add to favorites
×
Save as Personal and add changes to this tab that will be seen only by you. Learn more ›
×
You can save this tab as Personal to edit and correct it or add notes. All changes will be seen only by you. Learn more »
launch autoscroll
font size
0
reset
guitar tuner
edit
Autoscroll
slow
fast
+/-
esc
set tempo
stop
Author
Difficulty
About this tab version
I've altered it a little to make is easier for begginners to play. Was this info helpful? Yes No
Intro

   No Bass

Verse 1 (Bass comes in at 0:50)

G|---------------------------------------------------------------------|
D|---------------------------------------------------------------------|
A|-----------------------------------------------------5-7-5-----------|
E|-5h7-7-7-7-7-5h7-7-7-7-7-5h7-7-7-5h7-7-7-7-7-5h7-7-7-------7-5-------|

G|---------------------------------------------------------------------|
D|---------------------------------------------------------------------|
A|---------------------------------------------------------X-X-X-X-----|
E|-5h7-7-7-7-7-5h7-7-7-7-7-5h7-7-7-5h7-7-7-7-7-5h7-7-7-7-7-------------|

G|---------------------------------------------------------------------|
D|---------------------------------------------------------------------|
A|-----------------------------------------------------5-7-5-----------|
E|-5h7-7-7-7-7-5h7-7-7-7-7-5h7-7-7-5h7-7-7-7-7-5h7-7-7-------7-5-------|

G|---------------------------------------------------------------------|
D|---------------------------------------------------------------------|
A|-----------------------------------------------------5-7-5-----------|
E|-5h7-7-7-7-7-5h7-7-7-7-7-5h7-7-7-5h7-7-7-7-7-5h7-7-7-----------------|

Chorus 1

G|---------------------------------------------------------------------|
D|---------------------------------------------------------------------|
A|-2-2-2-2-2-2-2-2-2-2-2-2-2-2-2-2---4-4-4-4-4-4-4-4-4-4-4-4-4-4-4-4---|
E|---------------------------------------------------------------------|

G|---------------------------------------------------------------------|
D|---------------------------------------------------------------------|
A|-5-5-5-5-5-5-5-5-5-5-5-5-5-5-5-5-------------------------------------|
E|---------------------------------------------------------------------|

G|-----------------------2-2-2-2---------------------------------------|
D|-2-2-2-2-2-2-2-4-4-4-4-----------------------------------------------|
A|---------------------------------------------------------------------|
E|---------------------------------------------------------------------|

G|---------------------------------------------------------------------|
D|---------------------------------------------------------------------|
A|-2-2-2-2-2-2-2-2-2-2-2-2-2-2-2-2-4-4-4-4-4-4-4-4-4-4-4-4-4-4-4-4-----|
E|---------------------------------------------------------------------|

G|---------------------------------------------------------------------|
D|---------------------------------------------------------------------|
A|-5-5-5-5-5-5-5-5-5-5-5-5-5-5-5-5-------------------------------------|
E|---------------------------------------------------------------------|

G|-------------------------2-2-2-2-------------------------------------|
D|-2-2-2-2-2-2-2-2-4-4-4-4---------------------------------------------|
A|---------------------------------------------------------------------|
E|---------------------------------------------------------------------|

After-Chorus

   No Bass

Verse 2

G|---------------------------------------------------------------------|
D|---------------------------------------------------------------------|
A|-----------------------------------------------------5-7-5-----------|
E|-5h7-7-7-7-7-5h7-7-7-7-7-5h7-7-7-5h7-7-7-7-7-5h7-7-7-------7-5-------|

G|---------------------------------------------------------------------|
D|---------------------------------------------------------------------|
A|---------------------------------------------------------X-X-X-X-----|
E|-5h7-7-7-7-7-5h7-7-7-7-7-5h7-7-7-5h7-7-7-7-7-5h7-7-7-7-7-------------|

G|---------------------------------------------------------------------|
D|---------------------------------------------------------------------|
A|-----------------------------------------------------5-7-5-----------|
E|-5h7-7-7-7-7-5h7-7-7-7-7-5h7-7-7-5h7-7-7-7-7-5h7-7-7-------7-5-------|

G|---------------------------------------------------------------------|
D|---------------------------------------------------------------------|
A|-----------------------------------------------------5-7-5-----------|
E|-5h7-7-7-7-7-5h7-7-7-7-7-5h7-7-7-5h7-7-7-7-7-5h7-7-7-----------------|
   
Chorus 2 Part 1
  
G|---------------------------------------------------------------------|
D|---------------------------------------------------------------------|
A|-2-2-2-2-2-2-2-2-2-2-2-2-2-2-2-2---4-4-4-4-4-4-4-4-4-4-4-4-4-4-4-4---|
E|---------------------------------------------------------------------|

G|---------------------------------------------------------------------|
D|---------------------------------------------------------------------|
A|-5-5-5-5-5-5-5-5-5-5-5-5-5-5-5-5-------------------------------------|
E|---------------------------------------------------------------------|

G|-----------------------2-2-2-2---------------------------------------|
D|-2-2-2-2-2-2-2-4-4-4-4-----------------------------------------------|
A|---------------------------------------------------------------------|
E|---------------------------------------------------------------------|

G|---------------------------------------------------------------------|
D|---------------------------------------------------------------------|
A|-2-2-2-2-2-2-2-2-2-2-2-2-2-2-2-2-4-4-4-4-4-4-4-4-4-4-4-4-4-4-4-4-----|
E|---------------------------------------------------------------------|

G|---------------------------------------------------------------------|
D|---------------------------------------------------------------------|
A|-5-5-5-5-5-5-5-5-5-5-5-5-5-5-5-5-------------------------------------|
E|---------------------------------------------------------------------|

G|-------------------------2-2-2-2-------------------------------------|
D|-2-2-2-2-2-2-2-2-4-4-4-4---------------------------------------------|
A|---------------------------------------------------------------------|
E|---------------------------------------------------------------------|

Chorus 2 Part 2

G|---------------------------------------------------------------------|
D|---------------------------------------------------------------------|
A|---------------------------------0-0-0-0-0-0-0-0-0-0-0-0-0-0-0-0-----|
E|-3-3-3-3-3-3-3-3-3-3-3-3-3-3-3-3-------------------------------------|

G|---------------------------------------------------------------------|
D|---------------------------------0-0-0-0-0-0-0-0---------------------|
A|-2-2-2-2-2-2-2-2-2-2-2-2-2-2-2-2-----------------0-0-0-0-0-0-0-0-----|
E|---------------------------------------------------------------------|

G|---------------------------------------------------------------------|
D|---------------------------------------------------0-0-0-0-0-0-0-----|
A|---------------------------------0-0-0-0-0-0-0-0-0-------------------|
E|-3-3-3-3-3-3-3-3-3-3-3-3-3-3-3-3-------------------------------------|

Bridge (Bass comes in at 2:53)

G|---------------------------------------------------------------------|
D|---------------------------------------------------------------------|
A|-----------------------------------------------------5-7-5-----------|
E|-5h7-7-7-7-7-5h7-7-7-7-7-5h7-7-7-5h7-7-7-7-7-5h7-7-7-------7-5-------|

G|---------------------------------------------------------------------|
D|---------------------------------------------------------------------|
A|---------------------------------------------------------5-5-5-------|
E|-5h7-7-7-7-7-5h7-7-7-7-7-5h7-7-7-5h7-7-7-7-7-5h7-7-7-7-7-------------|

G|---------------------------------------------------------------------|
D|---------------------------------------------------------------------|
A|-----------------------------------------------------5-7-5-----------|
E|-5h7-7-7-7-7-5h7-7-7-7-7-5h7-7-7-5h7-7-7-7-7-5h7-7-7-------7-5-------|

G|---------------------------------------------------------------------|
D|---------------------------------------------------------------------|
A|-----------------------------------------------------5-7-5-----------|
E|-5h7-7-7-7-7-5h7-7-7-7-7-5h7-7-7-5h7-7-7-7-7-5h7-7-7-----------------|

Chorus 3 Part 1

G|---------------------------------------------------------------------|
D|---------------------------------------------------------------------|
A|-2-2-2-2-2-2-2-2-2-2-2-2-2-2-2-2---4-4-4-4-4-4-4-4-4-4-4-4-4-4-4-4---|
E|---------------------------------------------------------------------|

G|---------------------------------------------------------------------|
D|---------------------------------------------------------------------|
A|-5-5-5-5-5-5-5-5-5-5-5-5-5-5-5-5-------------------------------------|
E|---------------------------------------------------------------------|

G|-----------------------2-2-2-2---------------------------------------|
D|-2-2-2-2-2-2-2-4-4-4-4-----------------------------------------------|
A|---------------------------------------------------------------------|
E|---------------------------------------------------------------------|

G|---------------------------------------------------------------------|
D|---------------------------------------------------------------------|
A|-2-2-2-2-2-2-2-2-2-2-2-2-2-2-2-2-4-4-4-4-4-4-4-4-4-4-4-4-4-4-4-4-----|
E|---------------------------------------------------------------------|

G|---------------------------------------------------------------------|
D|---------------------------------------------------------------------|
A|-5-5-5-5-5-5-5-5-5-5-5-5-5-5-5-5-------------------------------------|
E|---------------------------------------------------------------------|

G|-------------------------2-2-2-2-------------------------------------|
D|-2-2-2-2-2-2-2-2-4-4-4-4---------------------------------------------|
A|---------------------------------------------------------------------|
E|---------------------------------------------------------------------|

Chorus 3 Part 2

G|---------------------------------------------------------------------|
D|---------------------------------------------------------------------|
A|---------------------------------0-0-0-0-0-0-0-0-0-0-0-0-0-0-0-0-----|
E|-3-3-3-3-3-3-3-3-3-3-3-3-3-3-3-3-------------------------------------|

G|---------------------------------------------------------------------|
D|---------------------------------0-0-0-0-0-0-0-0---------------------|
A|-2-2-2-2-2-2-2-2-2-2-2-2-2-2-2-2-----------------0-0-0-0-0-0-0-0-----|
E|---------------------------------------------------------------------|

G|---------------------------------------------------------------------|
D|---------------------------------------------------------------------|
A|---------------------------------0-0-0-0-0-0-0-0-0-0-0-0-0-0-0-0-----|
E|-3-3-3-3-3-3-3-3-3-3-3-3-3-3-3-3-------------------------------------|

G|---------------------------------------------------------------------|
D|---------------------------------0-0-0-0-0-0-0-0---------------------|
A|-2-2-2-2-2-2-2-2-2-2-2-2-2-2-2-2-----------------0-0-0-0-0-0-0-0-----|
E|---------------------------------------------------------------------|

G|---------------------------------------------------------------------|
D|---------------------------------------------------------------------|
A|---------------------------------0-0-0-0-0-0-0-0-0-0-0-0-0-0-0-0-----|
E|-3-3-3-3-3-3-3-3-3-3-3-3-3-3-3-3-------------------------------------|

G|---------------------------------------------------------------------|
D|---------------------------------0-0-0-0-0-0-0-0---------------------|
A|-2-2-2-2-2-2-2-2-2-2-2-2-2-2-2-2-----------------0-0-0-0-0-0-0-0-----|
E|---------------------------------------------------------------------|

G|---------------------------------------------------------------------|
D|---------------------------------------------------0-0-0-0-0-0-0-----|
A|---------------------------------0-0-0-0-0-0-0-0-0-------------------|
E|-3-3-3-3-3-3-3-3-3-3-3-3-3-3-3-3-------------------------------------|




| x  Mute note
| h  hammer on 

            
            
Suggest correction
Creating personal tab
Creating personal tab
You can edit any tab online and save it as your Personal.

You can edit, replace or remove any tab part or add personal notes – all changes will be seen only by you.

Personal tabs can be accessed anytime from any device, even offline.
Learn more »
Give kudos to tab author, rate the tab!
1 2 3 4 5
comments
print report bad tab
guest
You may want to rate the tab now too:
select rating
Wanna post a correction for this tab? Suggest correction