Oops, an error
Loading. Please wait.

Disenchanted Tab

version 1
version 1
29,587 views 51 this week
no commentswrite comment
1 2 3 4 5
x 9
add to favorites
launch autoscroll
font size
0
reset
how to read this tab
guitar tuner
Autoscroll
slow
fast
+/-
esc
set tempo
stop
Help us to improve Ultimate-Guitar.com Take our survey!
×
Author
Difficulty
advanced
[Intro]
e|--------------------------------------------------|
B|---3-----3----3-----------------------------------|
G|-----2-----2----2--0---0----0--2--0---------------|
D|---0-----------------4---4----------4-------------|
A|-----------------------5--------------------------|
E|--------------------------------------------------|

e|--------------------------------------------------|
B|--3-----3------3-------------------2--0-----------|
G|-----2-----2-----2--0--4--0--4--0--------4--------|
D|--------------------------------------------------|
A|--2-----------------------2-----------------------|
E|--------------------------------------------------|

e|--------------------------------------------------|
B|--3----3----3-------------------------------------|
G|----2----2----2--0--4--0--4--0--2--0--4-----------|
D|--------------------------------------------------|
A|--------------------------------------------------|
E|--3--------------------3--------------------------|

e|--------------------------------------------------|
B|--3---3---3---------------------------------------|
G|----2---2---2--0--4--0--4--0--2--0--4-------------|
D|--------------------------------------------------|
A|--0------------------0----------------------------|
E|--------------------------------------------------|

[Verse 1]
e|--------------------------------------------------|
B|---3-----3----3-----------------------------------|
G|-----2-----2----2--0---0----0--2--0---------------|
D|---0-----------------4---4----------4-------------|
A|-----------------------5--------------------------|
E|--------------------------------------------------|

e|--------------------------------------------------|
B|--3-----3------3-------------------2--0-----------|
G|-----2-----2-----2--0--4--0--4--0--------4--------|
D|--------------------------------------------------|
A|--2-----------------------2-----------------------|
E|--------------------------------------------------|

e|--------------------------------------------------|
B|--3----3----3-------------------------------------|
G|----2----2----2--0--4--0--4--0--2--0--4-----------|
D|--------------------------------------------------|
A|--------------------------------------------------|
E|--3--------------------3--------------------------|

e|--------------------------------------------------|
B|--3---3---3---------------------------------------|
G|----2---2---2--0--4--0--4--0--4--2--0-------------|
D|--------------------------------------------------|
A|--0------------------0----------------------------|
E|--------------------------------------------------|

[Verse 2]
e|-----------------------------|
B|-----------------------------|
G|--7--7--7--7--7--7--7--7-----|
D|--7--7--7--7--7--7--7--7-----|    (x2)
A|--5--5--5--5--5--5--5--5-----|
E|-----------------------------|

e|-----------------------------|
B|-----------------------------|
G|--4--4--4--4--4--4--4--4-----|
D|--4--4--4--4--4--4--4--4-----|    (x2)
A|--2--2--2--2--2--2--2--2-----|
E|-----------------------------|

e|-----------------------------|
B|-----------------------------|
G|-----------------------------|
D|--5--5--5--5--5--5--5--5-----|    (x2)
A|--5--5--5--5--5--5--5--5-----|
E|--3--3--3--3--3--3--3--3-----|

e|-----------------------------|
B|-----------------------------|
G|-----------------------------|
D|--7--7--7--7--7--7-----------|    (x2)
A|--7--7--7--7--7--7-----------|
E|--5--5--5--5--5--5-----------|

e|-----------------------------|
B|-----------------------------|
G|-----------------------------|
D|--8--8--8--4-----------------|
A|--8--8--8--4-----------------|
E|--6--6--6--2-----------------|

[Pre-Chorus]
e|-----------------------------|
B|-----------------------------|
G|-----------------------------|
D|--4--4--4--4--4--4--4--4-----|
A|--4--4--4--4--4--4--4--4-----|
E|--2--2--2--2--2--2--2--2-----|

e|-----------------------------|
B|-----------------------------|
G|-----------------------------|
D|--2--2--2--2--2--2--2--2-----|
A|--2--2--2--2--2--2--2--2-----|
E|--0--0--0--0--0--0--0--0-----|

e|-----------------------------|
B|-----------------------------|
G|-----------------------------|
D|--7--7--7--7--7--7--7--7-----|
A|--7--7--7--7--7--7--7--7-----|
E|--5--5--5--5--5--5--5--5-----|

e|-----------------------------|
B|-----------------------------|
G|--7--7--7--6--6--6--4--4-----|
D|--7--7--7--6--6--6--4--4-----|
A|--5--5--5--4--4--4--2--2-----|
E|-----------------------------|

e|-----------------------------|
B|-----------------------------|
G|--4--4--4--4--4--4-----------|
D|--4--4--4--4--4--4-----------|
A|--2--2--2--2--2--2-----------|
E|-----------------------------|

e|-----------------------------|
B|-----------------------------|
G|-----------------------------|
D|--5--5--5--5--5--5--5--5-----|
A|--5--5--5--5--5--5--5--5-----|
E|--3--3--3--3--3--3--3--3-----|

e|-----------------------------|
B|-----------------------------|
G|-----------------------------|
D|--7--7--7--7--7--7--7--7-----|    (x2)
A|--7--7--7--7--7--7--7--7-----|
E|--5--5--5--5--5--5--5--5-----|

[Chorus]
e|-----------------------------|
B|-----------------------------|
G|--7--7--7--7--7--7--7--7-----|
D|--7--7--7--7--7--7--7--7-----|    (x2)
A|--5--5--5--5--5--5--5--5-----|
E|-----------------------------|

e|-----------------------------|
B|-----------------------------|
G|--4--4--4--4--4--4--4--4-----|
D|--4--4--4--4--4--4--4--4-----|    (x2)
A|--2--2--2--2--2--2--2--2-----|
E|-----------------------------|

e|-----------------------------|
B|-----------------------------|
G|-----------------------------|
D|--2--2--2--2--2--2--2--2-----|    (x2)
A|--2--2--2--2--2--2--2--2-----|
E|--0--0--0--0--0--0--0--0-----|

e|-----------------------------|
B|-----------------------------|
G|-----------------------------|
D|--7--7--7--7--7--7--7--7-----|    (x2)
A|--7--7--7--7--7--7--7--7-----|
E|--5--5--5--5--5--5--5--5-----|

[Verse 3]
e|-----------------------------|
B|-----------------------------|
G|--7--7--7--7--7--7--7--7-----|
D|--7--7--7--7--7--7--7--7-----|    (x2)
A|--5--5--5--5--5--5--5--5-----|
E|-----------------------------|

e|-----------------------------|
B|-----------------------------|
G|--4--4--4--4--4--4--4--4-----|
D|--4--4--4--4--4--4--4--4-----|    (x2)
A|--2--2--2--2--2--2--2--2-----|
E|-----------------------------|

e|-----------------------------|
B|-----------------------------|
G|-----------------------------|
D|--5--5--5--5--5--5--5--5-----|    (x2)
A|--5--5--5--5--5--5--5--5-----|
E|--3--3--3--3--3--3--3--3-----|

e|-----------------------------|
B|-----------------------------|
G|-----------------------------|
D|--7--7--7--7--7--7-----------|    (x2)
A|--7--7--7--7--7--7-----------|
E|--5--5--5--5--5--5-----------|

e|-----------------------------|
B|-----------------------------|
G|-----------------------------|
D|--8--8--8--4-----------------|
A|--8--8--8--4-----------------|
E|--6--6--6--2-----------------|

[Pre-Chorus, Chorus]

[Bridge]
e|--------------|
B|--------------|
G|--7--7--7--7--|
D|--7--7--7--7--|
A|--5--5--5--5--|
E|--------------|

e|--------------|
B|--------------|
G|--------------|
D|--8--8--8--8--|
A|--8--8--8--8--|
E|--6--6--6--6--|
(x2)

e|------------------------------------------------|
B|------------------------------------------------|
G|--7--7--7--6--6--6--4--4--4---------------------|
D|--7--7--7--6--6--6--4--4--4--7--7--7--5--5------|
A|--5--5--5--4--4--4--2--2--2--7--7--7--5--5------|
E|-----------------------------5--5--5--3--3------|

e|-------------------------|
B|-------------------------|
G|-------------------------|
D|--5--5--5--5--5--5-------|
A|--5--5--5--5--5--5-------|
E|--3--3--3--3--3--3-------|

e|-----------------------------|
B|-----------------------------|
G|-----------------------------|
D|--7--7--7--7--7--7--7--7-----|
A|--7--7--7--7--7--7--7--7-----|
E|--5--5--5--5--5--5--5--5-----|

e|--------------------------------------------------|
B|---3-----3----3-----------------------------------|
G|-----2-----2----2--0---0----0--2--0---------------|
D|---0-----------------4---4----------4-------------|
A|-----------------------5--------------------------|
E|--------------------------------------------------|

e|--------------------------------------------------|
B|--3-----3------3-------------------2--0-----------|
G|-----2-----2-----2--0--4--0--4--0--------4--------|
D|--------------------------------------------------|
A|--2-----------------------2-----------------------|
E|--------------------------------------------------|

e|--------------------------------------------------|
B|--3----3----3-------------------------------------|
G|----2----2----2--0--4--0--4--0--2--0--4-----------|
D|--------------------------------------------------|
A|--------------------------------------------------|
E|--3--------------------3--------------------------|

e|--------------------------------------------------|
B|--3---3---3---------------------------------------|
G|----2---2---2--0--4--0--4--0--4--2--0-------------|
D|--------------------------------------------------|
A|--0------------------0----------------------------|
E|--------------------------------------------------|

[Chorus]

[Outro]
e|--------------------------------------------------|
B|---3-----3----3-----------------------------------|
G|-----2-----2----2--0---0----0--2--0---------------|
D|---0-----------------4---4----------4-------------|
A|-----------------------5--------------------------|
E|--------------------------------------------------|

e|--------------------------------------------------|
B|--3-----3------3-------------------2--0-----------|
G|-----2-----2-----2--0--4--0--4--0--------4--------|
D|--------------------------------------------------|
A|--2-----------------------2-----------------------|
E|--------------------------------------------------|

e|--------------------------------------------------|
B|--3----3----3-------------------------------------|
G|----2----2----2--0--4--0--4--0--2--0--4-----------|
D|--------------------------------------------------|
A|--------------------------------------------------|
E|--3--------------------3--------------------------|

e|--------------------------------------------------|
B|--3---3---3---------------------------------------|
G|----2---2---2--0--4--0--4--0--4--2--0-------------|       D
D|--------------------------------------------------|
A|--0------------------0----------------------------|
E|--------------------------------------------------|

[Lyrics]
[Verse 1]
Well I was there on the day
They sold the cause for the queen,
And when the lights all went out
We watched our lives on the screen.
I hate the ending myself,
But it started with an alright scene.

[Verse 2]
It was the roar of the crowd
That gave me heartache to sing.
It was a lie when they smiled
And said, "you won't feel a thing"
And as we ran from the cops
We laughed so hard it would sting

Yeah yeah, oh

[Pre-Chorus]
If I'm so wrong (so wrong, so wrong)
How can you listen all night long? (night long, night long)
Now will it matter after I'm gone?
Because you never learn a goddamned thing.

[Chorus]
You're just a sad song with nothing to say
About a life long wait for a hospital stay
And if you think that I'm wrong,
This never meant nothing to ya

[Verse 3]
I spent my high school career
Spit on and shoved to agree
So I could watch all my heroes
Sell a car on tv
Bring out the old guillotine
We'll show 'em what we all mean.

Yeah yeah, oh

[Pre-Chorus]
If I'm so wrong (so wrong, so wrong)
How can you listen all night long? (night long, night long)
Now will it matter long after I'm gone?
Because you never learn a goddamned thing.

[Chorus]
You're just a sad song with nothing to say
About a life long wait for a hospital stay
And if you think that I'm wrong,
This never meant nothing to ya

[Bridge]
So go, go away, just go, run away.
But where did you run to? And where did you hide?
Go find another way, price you pay

Woah, Woah, Woah, Woah, Woah, Woah

[Chorus] (x2):
You're just a sad song with nothing to say
About a life long wait for a hospital stay
And if you think that I'm wrong,
This never meant nothing to ya, come on

[Outro]
At all, at all, at all, at all
Suggest correction
comments
print report bad tab
guest
You may want to rate the tab now too:
select rating
Wanna post a correction for this tab? Suggest correction