Oops, an error
Loading. Please wait.

Disenchanted Shut Up And Pray Bass Tab

553 views 1 this week
5 commentsread comments
1 2 3 4 5
accurate
x 5
add to favorites
launch autoscroll
font size
0
reset
guitar tuner
Tab Pro tools
  • play this tab
  • loop segment
  • change instrument
  • show fretboard
  • metronome
Autoscroll
slow
fast
+/-
esc
set tempo
stop
Contributor
Artist:	My Chemical Romance
Title:	Disenchanted (shut Up And pray)
~ = Hold 
Intro (play softly with guitar)
|--5-5-5-5-5-5-5-5-5-5--------|
|-----------------------------|  x5
|-----------------------------|    
|-----------------------------|

chorus 
|------------------|
|------------------|
|--5-3-4-4-5-------|     x14
|------------------|

Verse 
|------------------|------------------|------------------|------------------|------------------|
|------------------|------------------|------------------|------------------|--5-5--6-5--------|
|--5-7-6-6-5-------|--5-7-6-6-5-------|--5-7-6-6-5-------|--5-7-6-6-5-------|------------------|
|------------------|------------------|------------------|------------------|------------------|
(still verse)
|------------------|------------------|------------------|------------------|
|------------------|------------------|------------------|------------------|
|--5-7-6-6-5-------|--5-7-6-6-5-------|--5-7-6-6-5-------|--5-7-6-6-5-------|
|------------------|------------------|------------------|------------------|

Bridge
|5~~--5~~--5~~--5~~|------------------|
|------------------|------------------|
|------------------|------------------|
|------------------|------------------|

|--6-7~~-9-8-------|
|------------------|     x8
|------------------|
|------------------|


Break(2:37)
|------------------|
|--7~--------------|
|------------------|
|------------------|

Outro
|--12--------------|
|------------------|
|------------------|
|------------------|



intro

chorus (0:20)

Verse  (1:01)

chorus (1:19)

verse  (1:38)

bridge (1:58)

Break  (2:37)

Chorus (2:44)

Outro  (3:16)
comments
print report bad tab
5 comments total. Showing first comments.
0 reply
Annie93 wrote on June 1 2006, 10:35 pm

I don't really play bass... good tab though. I only wanted to say that the name of the song is "Shut Up and Play", not Shut Up and Pray. Hahaha, that was annoying me; I'm a wretched perfectionist.

xoxo
Annie

0 reply
Mcr14 wrote on June 2 2006, 03:46 am

cheers . I thought it was that . Sorry about that.

0 reply
f1f2 wrote on August 4 2006, 09:41 am

check it out: i rated it 5 stars...

I want to post or [tab]
guest
You may want to rate the tab now too:
select rating
Please do not post tabs as comments. Select "correction" instead!