Oops, an error
Loading. Please wait.

Disenchanted Tab

version 1
255,336 views 444 this week
15 commentsread comments
1 2 3 4 5
x 21
add to favorites
launch autoscroll
font size
0
reset
how to read this tab
guitar tuner
Autoscroll
slow
fast
+/-
esc
set tempo
stop
Help us to improve Ultimate-Guitar.com Take our survey!
×
Author
Difficulty
Tuning
novice
E A D G B E
Song: Disenchanted
Band: My Chemical Romance
Album: The Black Parade
Tabber: TheRev12


[Intro Riff]

e|--------------------------------------------------------------------------|
B|----3---3---3-------------------------------------------------------------|
G|------2---2---2-0---0---0---0-2-0----X 8----------------------------------|
D|------------------4---4---4-------4---------------------------------------|
A|--------------------------------------------------------------------------|
E|--------------------------------------------------------------------------|


[Riff 1]                    [Riff 2]

e|--------------------------|-----------------------------------------------|
B|--------------------------|-----------------------------------------------|
G|---7~~--4~~---------------|-4~----------7-7---7-7-7---7-4~----------------|
D|---7~~--4~~--5~~--7-------|-4~--2~--7~--7-7-x-7-7-7-x-7-4~-2~-7~-9--11-12-|
A|---5~~--2~~--5~~--7-------|-2~--2~--7~--5-5-x-5-4-4-x-4-2~-2~-7~-9--11-12-|
E|-------------3~~--5~~5~-6~|-----0~--5~---------------------0~-5~-7--9--10-|


[Riff 3] (goes with riff 1 second time around)

e|--------------------------------------------------------------------------|
B|--12-12-12-11-11-11-11-11-------------------------------------------------|
G|---x--x--x--x--x--x--x--x---X 4-------------------------------------------|
D|--10-10-10--9--9--9--9--9--------2-----7----------------------------------|
A|---------------------------------2-x16-7-x16------------------------------|
E|---------------------------------0-----5----------------------------------|


[Riff 1]                    [Riff 2]

e|--------------------------|-----------------------------------------------|
B|--------------------------|-----------------------------------------------|
G|---7~~--4~~---------------|-4~----------7-7---7-7-7---7-4~----------------|
D|---7~~--4~~--5~~--7-------|-4~--2~--7~--7-7-x-7-7-7-x-7-4~-2~-7~-9--11-12-|
A|---5~~--2~~--5~~--7-------|-2~--2~--7~--5-5-x-5-4-4-x-4-2~-2~-7~-9--11-12-|
E|-------------3~~--5~~5~-6~|-----0~--5~---------------------0~-5~-7--9--10-|


[Riff 3] 

e|--------------------------------------------------------------------------|
B|--12-12-12-11-11-11-11-11-------------------------------------------------|
G|---x--x--x--x--x--x--x--x---X 4-------------------------------------------|
D|--10-10-10--9--9--9--9--9--------2-----7----------------------------------|
A|---------------------------------2-x16-7-x16------------------------------|
E|---------------------------------0-----5----------------------------------|


[Riff 4]               [Riff 5]

e|---------------------|----------------------------------------------------|
B|---------------------|----------------------------------------------------|
G|-7-------------------|-7-7-x-7-7-7---7-4-4---4-2-2------------------------|
D|-7--------------X 2--|-7-7-x-7-7-7---7-4-4---4-2-2---5555555577777777-----|
A|-5-0-5-7-9-1~--------|-5-5-x-5-4-4-x-4-2-2-x-2-0-0-x-5555555577777777-----|
E|---------------------|-------------------------------3333333355555555-----|


[Intro Riff] (Palm mute the G and the A 8 times each)

e|--------------------------------------------------------------------------|
B|----3---3---3-------------------------------------------------------------|
G|------2---2---2-0---0---0---0-2-0----X 8----------------------------------|
D|------------------4---4---4-------4---------------------------------------|
A|--------------------------------------------------------------------------|
E|--------------------------------------------------------------------------|


[Riff 3] 

e|--------------------------------------------------------------------------|
B|--12-12-12-11-11-11-11-11-------------------------------------------------|
G|---x--x--x--x--x--x--x--x---X 4-------------------------------------------|
D|--10-10-10--9--9--9--9--9--------2-----7----------------------------------|
A|---------------------------------2-x16-7-x16------------------------------|
E|---------------------------------0-----5----------------------------------|


[Intro Riff] (well outro riff its the same really)

e|--------------------------------------------------------------------------|
B|----3---3---3-------------------------------------------------------------|
G|------2---2---2-0---0---0---0-2-0----X 8----------------------------------|
D|------------------4---4---4-------4---------------------------------------|
A|--------------------------------------------------------------------------|
E|--------------------------------------------------------------------------|


[Outro]

e|-----2------------|
B|----3-------------|
G|---2--------------|
D|--0---------------|
A|--Sweep-----------|
E|------------------|


************************************

| x  Dead note
| ~  Vibrato

************************************
Suggest correction
comments
print report bad tab
15 comments total. Showing first comments.
+1 reply
BlackParade10 10 Nov 02, 2006 03:30 PM

no solo

+1 reply
DarkSideLeader 82 Nov 02, 2006 03:53 PM

ehh its alright for the first tab :/

+1 reply
rev_olie 43 Nov 07, 2006 04:30 PM

its good shame it wasnt a bit clearer as in mean the chorus parts and the verse but i think i got the jist

guest
You may want to rate the tab now too:
select rating
Wanna post a correction for this tab? Suggest correction