Oops, an error
Loading. Please wait.

Disenchanted Tab

version 3
15,998 views 18 this week
1 commentread comment
1 2 3 4 5
please rate
add to favorites
launch autoscroll
font size
0
reset
how to read this tab
guitar tuner
Autoscroll
slow
fast
+/-
esc
set tempo
stop
Help us to improve Ultimate-Guitar.com Take our survey!
×
Author
Difficulty
novice
Title: Disenchanted
Artist: My Chemical Romance

Tuning: Standard - EADGBe

Key:    / = slide up
~ = let ring
PM = palm mute


Intro x2 (clean)
|-----------------------------------|
|-----------------------------------|
|--7---7---7------------------------|
|--0-7---7---7-5-4-5-4-5-4-5-7-5-4--| x3
|-----------------------------------|
|-----------------------------------|

|-----------------------------------|
|-----------------------------------|
|--7---7---7------------------------|
|----7---7---7-5-4-5-4-5-4-5-7-5-4--|
|--0--------------------------------|
|-----------------------------------|


Verse (distortion)
|--------------------------------|
|--------------------------------|
|--7~----------------------------|
|--7~-----9~-----5~-----7~-------|
|--5~-----9~-----5~-----7~-------|
|---------7~-----3~-----5~--5—6--|


Pre-Chorus (distortion)
|-----------------------------|
|-----------------------------|
|--------------7-7--7-7-7--7--|
|--9---2---7---7-7--7-7-7--7--|
|--9---2---7---5-5--5-4-4--4--|
|--7---0---5------------------|

|---------------------------------------------------|
|---------------------------------------------------|
|---------------------------------------------------|
|--9---5---7-7-7-7/9-9-9-9/11-11-11-11/12-12/14-14--|
|--9---5---7-7-7-7/9-9-9-9/11-11-11-11/12-12/14-14--|
|--7---3---5-5-5-5/7-7-7-7/-9--9--9--9/10-10/12-12--|


Chorus (distortion)
|--------------------------------------------------------------------|
|--------------------------------------------------------------------|
|--7-7-7-7-7-7-7-7-7-7-7-7-7-7-7-7-----------------------------------| 
|--7-7-7-7-7-7-7-7-7-7-7-7-7-7-7-7--9-9-9-9-9-9-9-9-9-9-9-9-9-9-9-9--| 
|--5-5-5-5-5-5-5-5-5-5-5-5-5-5-5-5--9-9-9-9-9-9-9-9-9-9-9-9-9-9-9-9--|
|-----------------------------------7-7-7-7-7-7-7-7-7-7-7-7-7-7-7-7--|

|--------------------------------------------------------------------|
|--------------------------------------------------------------------|
|--------------------------------------------------------------------| 
|--5-5-5-5-5-5-5-5-5-5-5-5-5-5-5-5--7-7-7-7-7-7-7-7-7-7-7-7-7-7-7-7--| 
|--5-5-5-5-5-5-5-5-5-5-5-5-5-5-5-5--7-7-7-7-7-7-7-7-7-7-7-7-7-7-7-7--|
|--3-3-3-3-3-3-3-3-3-3-3-3-3-3-3-3--5-5-5-5-5-5-5-5-5-5-5-5-5-5-5-5--|


Verse Altered (distortion)
|----------------------------------------------|
|----------------------------------------------|
|--7~------------------------------------------|
|--7~---16-------9~---16-------5~-----7~-------|
|--5~------17-14-9~------12-10-5~-----7~-------|
|----------------7~------------3~-----5~--5—6--|


Pre-Chorus (distortion)
|-----------------------------|
|-----------------------------|
|--------------7-7--7-7-7--7--|
|--9---2---7---7-7--7-7-7--7--|
|--9---2---7---5-5--5-4-4--4--|
|--7---0---5------------------|

|---------------------------------------------------|
|---------------------------------------------------|
|---------------------------------------------------|
|--9---5---7-7-7-7/9-9-9-9/11-11-11-11/12-12/14-14--|
|--9---5---7-7-7-7/9-9-9-9/11-11-11-11/12-12/14-14--|
|--7---3---5-5-5-5/7-7-7-7/-9--9--9--9/10-10/12-12--|


Chorus (distortion)
|--------------------------------------------------------------------|
|--------------------------------------------------------------------|
|--7-7-7-7-7-7-7-7-7-7-7-7-7-7-7-7-----------------------------------| 
|--7-7-7-7-7-7-7-7-7-7-7-7-7-7-7-7--9-9-9-9-9-9-9-9-9-9-9-9-9-9-9-9--| 
|--5-5-5-5-5-5-5-5-5-5-5-5-5-5-5-5--9-9-9-9-9-9-9-9-9-9-9-9-9-9-9-9--|
|-----------------------------------7-7-7-7-7-7-7-7-7-7-7-7-7-7-7-7--|

|--------------------------------------------------------------------|
|--------------------------------------------------------------------|
|--------------------------------------------------------------------| 
|--5-5-5-5-5-5-5-5-5-5-5-5-5-5-5-5--7-7-7-7-7-7-7-7-7-7-7-7-7-7-7-7--| 
|--5-5-5-5-5-5-5-5-5-5-5-5-5-5-5-5--7-7-7-7-7-7-7-7-7-7-7-7-7-7-7-7--|
|--3-3-3-3-3-3-3-3-3-3-3-3-3-3-3-3--5-5-5-5-5-5-5-5-5-5-5-5-5-5-5-5--|


Bridge (distortion)
|--------------------------------|
|--------------------------------|
|-7---------------7--------------|
|-7--------4-1~---7--------4-1~--|
|-5----5-7---1~---5----5-7---1~--|
|----5---------------5-----------|

|----------------------------------------------------------------|
|----------------------------------------------------------------|
|--7-7--7-7-7--7-4-4--4-2-2--2-----------------------------------|
|--7-7--7-7-7--7-4-4--4-2-2--2-5-5-5-5-5-5-5-5--7-7-7-7-7-7-7-7--|
|--5-5--5-4-4--4-2-2--2-0-0--0-5-5-5-5-5-5-5-5--7-7-7-7-7-7-7-7--|
|------------------------------3-3-3-3-3-3-3-3--5-5-5-5-5-5-5-5--|


Intro Altered (distortion)
|-----------------------------------|
|-----------------------------------|
|--7---7---7------------------------|
|--0-7---7---7-5-4-5-4-5-4-5-7-5-4--| x3
|-----------------------------------|
|-----------------------------------|

|-----------------------------------|
|-----------------------------------|
|-----------------------------------| 
|--7-7-7-7-7-7-7-7-7-7-7-7-7-7-7-7--| 
|--7-7-7-7-7-7-7-7-7-7-7-7-7-7-7-7--|
|--5-5-5-5-5-5-5-5-5-5-5-5-5-5-5-5--|
 |-------PM-and-slowly-let-go------|


Chorus (distortion)
|--------------------------------------------------------------------|
|--------------------------------------------------------------------|
|--7-7-7-7-7-7-7-7-7-7-7-7-7-7-7-7-----------------------------------| 
|--7-7-7-7-7-7-7-7-7-7-7-7-7-7-7-7--9-9-9-9-9-9-9-9-9-9-9-9-9-9-9-9--| 
|--5-5-5-5-5-5-5-5-5-5-5-5-5-5-5-5--9-9-9-9-9-9-9-9-9-9-9-9-9-9-9-9--|
|-----------------------------------7-7-7-7-7-7-7-7-7-7-7-7-7-7-7-7--|

|--------------------------------------------------------------------|
|--------------------------------------------------------------------|
|--------------------------------------------------------------------| 
|--5-5-5-5-5-5-5-5-5-5-5-5-5-5-5-5--7-7-7-7-7-7-7-7-7-7-7-7-7-7-7-7--| 
|--5-5-5-5-5-5-5-5-5-5-5-5-5-5-5-5--7-7-7-7-7-7-7-7-7-7-7-7-7-7-7-7--|
|--3-3-3-3-3-3-3-3-3-3-3-3-3-3-3-3--5-5-5-5-5-5-5-5-5-5-5-5-5-5-5-5--|


Chorus Altered (distortion)
|--------------------------------------------------------------------|
|--------------------------------------------------------------------|
|--7-7-7-7-7-7-7-7-7-7-7-7-7-7-7-7-----------------------------------| 
|--7-7-7-7-7-7-7-7-7-7-7-7-7-7-7-7--9-9-9-9-9-9-9-9-9-9-9-9-9-9-9-9--| 
|--5-5-5-5-5-5-5-5-5-5-5-5-5-5-5-5--9-9-9-9-9-9-9-9-9-9-9-9-9-9-9-9--|
|-----------------------------------7-7-7-7-7-7-7-7-7-7-7-7-7-7-7-7--|

|----------------------------------------------------------------|
|----------------------------------------------------------------|
|----------------------------------------------------------------| 
|--5-5--5-5-5--5-5-5--5-5-5--5--7-7-7-7-7-7-7-7-7-7-7-7-7-7-7-7--| 
|--5-5--5-5-5--5-5-5--5-5-5--5--7-7-7-7-7-7-7-7-7-7-7-7-7-7-7-7--|
|--3-3--3-3-3--3-3-3--3-3-3--3--5-5-5-5-5-5-5-5-5-5-5-5-5-5-5-5--|


Outro (clean)
|-----------------------------------|
|-----------------------------------|
|--7---7---7------------------------|
|--0-7---7---7-5-4-5-4-5-4-5-7-5-4--| x3
|-----------------------------------|
|-----------------------------------|

|-----------------------------------------|
|--------------------------------------7--|
|--7---7---7--------------------------7---|
|--0-7---7---7-5-4-5-4-5-4-5-4-2-0---7----|
|-----------------------------------5-----|
|-----------------------------------------|
Suggest correction
Give kudos to tab author, rate the tab!
1 2 3 4 5
comments
print report bad tab
1 comment total.
0 reply
guitarhead93 71 wrote on November 19 2006, 10:13 pm

Man... This tab is so wrong.... For example: DO U KNOW WHAT A POWER CHORD IS??? It's only played with for strings and in the intro you have tu use the B and G string so you can let it ring. Something like this...

e------------------------------
B---3--3-3---------------------
G-----2-2-20-0-0-020-----------
D---0-------4-4-4----4---------
A------------------------------
E------------------------------

I'm only doing this for ur own good. _-peace-_

guest
You may want to rate the tab now too:
select rating
Please do not post tabs as comments. Select "correction" instead!