Oops, an error
Loading. Please wait.

Disenchanted Tab

version 4
229,738 views 540 this week
67 commentsread comments
1 2 3 4 5
excellent!
x 152
add to favorites
launch autoscroll
font size
0
reset
how to read this tab
guitar tuner
Autoscroll
slow
fast
+/-
esc
set tempo
stop
Help us to improve Ultimate-Guitar.com Take our survey!
×
Author
TRACK NO. 12 - DISENCHANTED (SHUT UP AND PLAY)

Ins.:
        Gtr 1 – Frank Iero
        Gtr 2 – Ray Toro


[INTRO]

Gtr 2
e|-----------------------------------|-----------------------------------|
B|-----------------------------------|--3---3---3------------------------|
G|--7---7---7-------0---0---0---0----|----2---2---2-0---0---0---0-2-0----|
D|----7---7---7-5-4---4---4---7---4--|----------------4---4---4-------4--|
A|--5---------------5----------------|--2---------------2----------------|
E|-----------------------------------|-----------------------------------|
(continued)
e|-----------------------------------|-----------------------------------|
B|--3---3---3------------------------|--3---3---3------------------------|
G|----2---2---2-0---0---0---0-2-0----|----2---2---2-0---0---0---0-2-0----|
D|----------------4---4---4-------4--|----------------4---4---4-------4--|
A|-----------------------------------|--0---------------0----------------|
E|--3---------------3----------------|-----------------------------------|


[VERSE 1]

Gtr 2
e|-----------------------------------|-----------------------------------|
B|-----------------------------------|--3---3---3------------------------|
G|--7---7---7-------0---0---0---0----|----2---2---2-0---0---0---0-2-0----|
D|----7---7---7-5-4---4---4---7---4--|----------------4---4---4-------4--|
A|--5---------------5----------------|--2---------------2----------------|
E|-----------------------------------|-----------------------------------|
(continued)
e|-----------------------------------|-----------------------------------|
B|--3---3---3------------------------|--3---3---3------------------------|
G|----2---2---2-0---0---0---0-2-0----|----2---2---2-0---0---0---0--------|
D|----------------4---4---4-------4--|----------------4---4---4---4-2-0--|
A|-----------------------------------|--0---------------0----------------|
E|--3---------------3----------------|-----------------------------------|

Both guitars
e|---------|---------|---------|---------------|
B|---------|---------|---------|---------------|
G|--7~~~~--|--4~~~~--|---------|---------------|
D|--7~~~~--|--4~~~~--|--5~~~~--|--7~~~--7~-8~--|
A|--5~~~~--|--2~~~~--|--5~~~~--|--7~~~--7~-9~--|
E|---------|---------|--3~~~~--|--5~~~--5~-6~--|


[REFRAIN]

Both guitars
e|------------|----------------------|------------|
B|------------|----------------------|------------|
G|--4~~-------|-------7-7--7-6-6--6--|--4~~-------|
D|--4~~--2~~--|--7~~--7-7--7-7-7--7--|--4~~--5~~--|
A|--2~~--2~~--|--7~~--5-5--5-4-4--4--|--2~~--5~~--|
E|-------0~~--|--5~~-----------------|-------3~~--|

Then,
Gtr 1
e|-----------------------------------|
B|-----------------------------------|
G|--2~~-------------2~~--------------|
D|--2~~-------------2~~--------------|
A|--0~~-------------0~~--------------|
E|-----------------------------------|
Gtr 2
e|-----------------------------------|
B|-----------------------------------|
G|-----------------------------------|
D|-----------------------------------|
A|------------------4-4-4-4-5-5-7-7--|
E|--5-5-5-5-7-7-7-7------------------|


[CHORUS]

Gtr 1
e|------------------------------------|------------------------------------|
B|------------------------------------|------------------------------------|
G|--12121211111111111212121111111414--|--1212121111111111121212111111-9-9--|
D|---x-x-x-x-x-x-x-x-x-x-x-x-x-x-x-x--|---x-x-x-x-x-x-x-x-x-x-x-x-x-x-x-x--|
A|--101010-9-9-9-9-9101010-9-9-91212--|--101010-9-9-9-9-9101010-9-9-9-7-7--|
E|------------------------------------|------------------------------------|
Gtr 2
e|-----------------------------------|-----------------------------------|
B|-----------------------------------|-----------------------------------|
G|--7-7-7-7-7-7-7-7-7-7-7-7-7-7-7-7--|--4-4-4-4-4-4-4-4-4-4-4-4-4-4-4-4--|
D|--7-7-7-7-7-7-7-7-7-7-7-7-7-7-7-7--|--4-4-4-4-4-4-4-4-4-4-4-4-4-4-4-4--|
A|--5-5-5-5-5-5-5-5-5-5-5-5-5-5-5-5--|--2-2-2-2-2-2-2-2-2-2-2-2-2-2-2-2--|
E|-----------------------------------|-----------------------------------|

Gtr 1
e|------------------------------------|------------------------------------|
B|------------------------------------|------------------------------------|
G|--12121212121212121212121214141616--|--14141414141414141414141414141414--|
D|---x-x-x-x-x-x-x-x-x-x-x-x-x-x-x-x--|---x-x-x-x-x-x-x-x-x-x-x-x-x-x-x-x--|
A|--10101010101010101010101012121414--|--12121212121212121212121212121212--|
E|------------------------------------|------------------------------------|
Gtr 2
e|-----------------------------------|-----------------------------------|
B|-----------------------------------|-----------------------------------|
G|-----------------------------------|-----------------------------------|
D|--5-5-5-5-5-5-5-5-5-5-5-5-5-5-5-5--|--7-7-7-7-7-7-7-7-7-7-7-7-7-7-7-7--|
A|--5-5-5-5-5-5-5-5-5-5-5-5-5-5-5-5--|--7-7-7-7-7-7-7-7-7-7-7-7-7-7-7-7--|
E|--3-3-3-3-3-3-3-3-3-3-3-3-3-3-3-3--|--5-5-5-5-5-5-5-5-5-5-5-5-5-5-5-5--|


[VERSE 2]

Gtr 1
e|-------------------|-------------------|---------|----------------------|
B|-------------------|-------------------|---------|----------------------|
G|--7~~~~------------|--4~~~~------------|---------|----------------------|
D|--7~~~~------------|--4~~~~------------|--5~~~~--|--7~~------------7~~--|
A|--5~~~~------------|--2~~~~------------|--5~~~~--|--7~~------------7~~--|
E|-------------------|-------------------|--3~~~~--|--5~~------------5~~--|
Gtr 2
e|-------14----------|-------10----------|---------|----------------------|
B|----------15-------|----------10-------|---------|----------------------|
G|--7~~--------14~~--|-------------12~~--|---------|--------7--6----------|
D|--7~~--------------|-------------------|--5~~~~--|------7-------7--7~~--|
A|--5~~--------------|-------------------|--5~~~~--|----7------------7~~--|
E|-------------------|-------------------|--3~~~~--|--5--------------5~~--|

(Repeat REFRAIN and CHORUS)


[BRIDGE]

Gtr 1
e|-------------------------|2x
B|-------------------------|
G|--7~~--7~~--7-9-11-------|
D|--7~~--7~~--x-x--x--8~~--|
A|--5~~--5~~--5-7--9--8~~--|
E|--------------------6~~--|
Gtr 2
e|--17~~-17~~-18-18-20-18--|--17~~-17~~-18-18-20-18-17--|
B|-------------------------|----------------------------|
G|-------------------------|----------------------------|
D|-------------------------|----------------------------|
A|-------------------------|----------------------------|
E|-------------------------|----------------------------|


[SOLO]

Gtr 1
e|-------------------------------|-----------------------------------|
B|-------------------------------|-----------------------------------|
G|--7-7--7-6-6--6-4-4--4---------|-----------------------------------|
D|--7-7--7-7-7--7-4-4--4-7-7--7--|--5-5-5-5-5-5-5-5-7-7-7-7-7-7-7-7--|
A|--5-5--5-4-4--4-2-2--2-7-7--7--|--5-5-5-5-5-5-5-5-7-7-7-7-7-7-7-7--|
E|-----------------------5-5--5--|--3-3-3-3-3-3-3-3-5-5-5-5-5-5-5-5--|
Gtr 2 (not 100% sure)
e|--21^(22)-21^(22)~-----19p17p15-17p15p14-19p17p15-17p15p14----15-14-14--|
B|-------------------19--------------------------------------17-----------|
G|------------------------------------------------------------------------|
D|------------------------------------------------------------------------|
A|------------------------------------------------------------------------|
E|------------------------------------------------------------------------|
(continued)
e|------------------------------------------------------------|
B|--17p15p14h15p14--------------------------------------15~~--|
G|-----------------16p14h16p14--------------------11-12-------|
D|-----------------------------16p14h16p14-12~~---------------|
A|------------------------------------------------------------|
E|------------------------------------------------------------|


[ADLIB]

Gtr 1
e|-----------------------------------|-----------------------------------|
B|-----------------------------------|-----------------------------------|
G|--7-7-7-7-7-7-7-7-7-7-7-7-7-7-7-7--|--4-4-4-4-4-4-4-4-4-4-4-4-4-4-4-4--|
D|--7-7-7-7-7-7-7-7-7-7-7-7-7-7-7-7--|--4-4-4-4-4-4-4-4-4-4-4-4-4-4-4-4--|
A|--5-5-5-5-5-5-5-5-5-5-5-5-5-5-5-5--|--2-2-2-2-2-2-2-2-2-2-2-2-2-2-2-2--|
E|-----------------------------------|-----------------------------------|
Gtr 2
e|-----------------------------------|-----------------------------------|
B|-----------------------------------|--3---3---3------------------------|
G|--7---7---7-------0---0---0---0----|----2---2---2-0---0---0---0-2-0----|
D|----7---7---7-5-4---4---4---7---4--|----------------4---4---4-------4--|
A|--5---------------5----------------|--2---------------2----------------|
E|-----------------------------------|-----------------------------------|

Gtr 1
e|-----------------------------------|-----------------------------------|
B|-----------------------------------|-----------------------------------|
G|-----------------------------------|-----------------------------------|
D|--5-5-5-5-5-5-5-5-5-5-5-5-5-5-5-5--|--7-7-7-7-7-7-7-7-7-7-7-7-7-7-7-7--|
A|--5-5-5-5-5-5-5-5-5-5-5-5-5-5-5-5--|--7-7-7-7-7-7-7-7-7-7-7-7-7-7-7-7--|
E|--3-3-3-3-3-3-3-3-3-3-3-3-3-3-3-3--|--5-5-5-5-5-5-5-5-5-5-5-5-5-5-5-5--|
Gtr 2
e|-----------------------------------|-----------------------------------|
B|--3---3---3------------------------|--3---3---3------------------------|
G|----2---2---2-0---0---0---0-2-0----|----2---2---2-0---0---0---0--------|
D|----------------4---4---4-------4--|----------------4---4---4---4-2-0--|
A|-----------------------------------|--0---------------0----------------|
E|--3---------------3----------------|-----------------------------------|

(Repeat CHORUS 2x - on the second repeat, another overdubbed guitar
fills in. You can just do it yourself :)


[OUTRO]

Gtr 1
e|---------|
B|---------|
G|--7~~~~--|
D|--7~~~~--|
A|--5~~~~--|
E|---------|
Gtr 2
e|-----------------------------------|-----------------------------------|
B|-----------------------------------|--3---3---3------------------------|
G|--7---7---7-------0---0---0---0----|----2---2---2-0---0---0---0-2-0----|
D|----7---7---7-5-4---4---4---7---4--|----------------4---4---4-------4--|
A|--5---------------5----------------|--2---------------2----------------|
E|-----------------------------------|-----------------------------------|
(continued)
e|-----------------------------------|-----------------------------------|
B|--3---3---3------------------------|--3---3---3------------------------|
G|----2---2---2-0---0---0---0-2-0----|----2---2---2-0---0---0---0--------|
D|----------------4---4---4-------4--|----------------4---4---4---4-2-0--|
A|-----------------------------------|--0---------------0----------------|
E|--3---------------3----------------|-----------------------------------|
(continued)
e|--2~~~~--|
B|--3~~~~--|
G|--2~~~~--|
D|--0~~~~--|
A|---------|
E|---------|


************************************

| x  Dead note
| h  Hammer-on
| p  Pull-off
| ~  Vibrato

************************************
Suggest correction
comments
print report bad tab
67 comments total. Showing first comments.
0 reply
geminivenom 10 wrote on November 9 2006, 06:58 am

wow, you always rock!! please tab . . . Blood!! lolz

0 reply
WCS_Is_Worse1 10 wrote on November 16 2006, 04:01 pm

please tab Dead! woot awesome song

0 reply
WCS_Is_Worse1 10 wrote on November 16 2006, 04:02 pm

oh and good tab! :p

guest
You may want to rate the tab now too:
select rating
Please do not post tabs as comments. Select "correction" instead!