Oops, an error
Loading. Please wait.

Disenchanted Chords

version 5
version 5
130,861 views 552 this week
6 commentsread comments
1 2 3 4 5
excellent!
x 77
add to favorites
launch autoscroll
font size
0
reset
transpose
0
reset
simplify chords
display chords
guitar tuner
Autoscroll
slow
fast
+/-
esc
set tempo
stop
Help us to improve Ultimate-Guitar.com Take our survey!
×
Difficulty
intermediate
-------------------------------------------------------------------------------
                             Disenchanted - My Chemical Romance
-------------------------------------------------------------------------------
Tabbed by: guitar player
Email: burnevidence@hotmail.co.uk

Tuning: EADGBE

Chords: 
xx0232 D
x20230 Bm7
320033 G
x02220 A
x12020 A#b7
x24432 Bm
022000 Em
x42220 A/C#
x22220 A/B
x13331 Bb

[Intro]

(carries onto first part of the first verse)

     D                                    Bm7           
e|---------------------------------------------------------------------------|
B|--3---3---3----------------------------3---3---3---------------------------|
G|----2---2---2-0---0---0---0-2-0----------2---2---2-0---0---0---0-2-0-------|
D|--0-------------4---4---4-------4--------------------4---4---4-------4-----|
A|------------------5--------------------2---------------2-------------------|
E|---------------------------------------------------------------------------|
    G                                    A/Asus4
e|---------------------------------------------------------------------------|
B|--3---3---3----------------------------3---3---3---------------------------|
G|----2---2---2-0---0---0---0-2-0----------2---2---2-0---0---0---0-2-0-------|
D|----------------4---4---4-------4--------------------4---4---4-------4-----|
A|---------------------------------------0---------------0-------------------|
E|--3---------------3--------------------------------------------------------|

(intro x2 (so D, Bm7, G,  A/Asus4, D, Bm7, G, A/Asus4))

Rest of song: (no longer picking until near the end)

[Verse]

            D
It was the roar of the crowd that gave me heartache to sing
          Bm7
It was a lie when they smiled and said you won't feel a thing
           G
And as we ran from the cops
                             A     A  A#b7
We laughed so hard it would sting

[Pre-Chorus]

Bm        Em
If I'm so wrong
            A                D  A/C#
How can you listen all night long?
Bm                 G
Now will it matter after I'm gone?
            A             A/B       A/C# 
Because you never learn a goddamned thing

[Chorus]

              D
You're just a sad song
      
With nothing to say
        Bm
About a lifelong wait for a hospital stay
           Em
And if you think that I'm wrong
                            A
This never meant nothing to ya


[Verse]

I spent my high school career spit on and shoved to agree
So I could watch all my heroes 
sell a car on TV
Bring out the old guillotine
We'll show them what we all mean

[Chorus]

If I'm so wrong
How can you listen all night long?
Now will it matter after I'm gone?
Because you never learn a goddamned thing

[Chorus]

You're just a sad song
With nothing to say
About a lifelong wait for a hospital stay
And if you think that I'm wrong
This never meant nothing to ya

   D
So go
   Bb
Go away
     D
Just run
    A/C#
Run away
                  Bm
But where did you run to?
             A
Where did you hide?
               G
Go find another way
          A
Price you pay

Intro (only once and then goes into chords rather than the picking on the A/Asus4 part)


[Chorus]

              D
You're just a sad song
      
With nothing to say
        Bm
About a lifelong wait for a hospital stay
           Em
And if you think that I'm wrong
                            A
This never meant nothing to ya
Cmon

              D
You're just a sad song
      
With nothing to say
        Bm
About a lifelong wait for a hospital stay
           Em
And if you think that I'm wrong
                            A
This never meant nothing to ya

At all

(intro only once)and finish by playing the A/Asus4 chord once slowly

********************************************

| /  slide up
| \  slide down
| H  hammer-on
| p  pull-off
| ~  vibrato
| +  harmonic
| x  Mute note

********************************************
Suggest correction
comments
print report bad tab
6 comments total. Showing first comments.
+3 reply
TheForbiddens 10 wrote on October 9 2013, 07:13 pm

the first part of the song isn't there...?

0 reply
agg2596 41 wrote on November 26 2013, 01:59 am

The first part of the song goes along with the single note plucking that's tabbed at the top. You could also play the chords listed above the tablature if you wanted, just play it in time with the song.

0 reply
hazuing 88 wrote on December 10 2015, 09:57 pm

What the hell is an A sharp flat seventh ?

guest
You may want to rate the tab now too:
select rating
Wanna post a correction for this tab? Suggest correction