Oops, an error
Loading. Please wait.

Disenchanted Tab

version 6
3,382 views 1 this week
1 commentread comment
1 2 3 4 5
please rate
add to favorites
launch autoscroll
font size
0
reset
how to read this tab
guitar tuner
Autoscroll
slow
fast
+/-
esc
set tempo
stop
Help us to improve Ultimate-Guitar.com Take our survey!
×
Author
Difficulty
novice
-------------------------------------------------------------------------------
                             DISENCHANTED - MY CHEMICAL ROMANCE
-------------------------------------------------------------------------------
Tabbed by:HECTORZV
Email:hector_zev@hotmail.com

Tuning:Standard

                             (Rhythm Guitar)

I.  Intro
Both guitars
e|---------|---------|---------|---------------|
B|---------|---------|---------|---------------|
G|--7~~~~--|--4~~~~--|---------|---------------|
D|--7~~~~--|--4~~~~--|--5~~~~--|--7~~~--7~-8~--|
A|--5~~~~--|--2~~~~--|--5~~~~--|--7~~~--7~-9~--|
E|---------|---------|--3~~~~--|--5~~~--5~-6~--|


II. REFRAIN

Both guitars
e|------------|----------------------|------------|
B|------------|----------------------|------------|
G|--4~~-------|-------7-7--7-6-6--6--|--4~~-------|
D|--4~~--2~~--|--7~~--7-7--7-7-7--7--|--4~~--5~~--|
A|--2~~--2~~--|--7~~--5-5--5-4-4--4--|--2~~--5~~--|
E|-------0~~--|--5~~-----------------|-------3~~--|


e|-----------------------------------|
B|-----------------------------------|
G|-----------------------------------|
D|-----------------------------------|
A|------------------4-4-4-4-5-5-7-7--|
E|--5-5-5-5-7-7-7-7------------------|

III. CHORUS

Gtr 1
e|------------------------------------|------------------------------------|
B|------------------------------------|------------------------------------|
G|--12121211111111111212121111111414--|--1212121111111111121212111111-9-9--|
D|---x-x-x-x-x-x-x-x-x-x-x-x-x-x-x-x--|---x-x-x-x-x-x-x-x-x-x-x-x-x-x-x-x--|
A|--101010-9-9-9-9-9101010-9-9-91212--|--101010-9-9-9-9-9101010-9-9-9-7-7--|
E|------------------------------------|------------------------------------|


e|------------------------------------|------------------------------------|
B|------------------------------------|------------------------------------|
G|--12121212121212121212121214141616--|--14141414141414141414141414141414--|
D|---x-x-x-x-x-x-x-x-x-x-x-x-x-x-x-x--|---x-x-x-x-x-x-x-x-x-x-x-x-x-x-x-x--|
A|--10101010101010101010101012121414--|--12121212121212121212121212121212--|
E|------------------------------------|------------------------------------|

IV. VERSE 2

Gtr 1
e|-------------------|-------------------|---------|----------------------|
B|-------------------|-------------------|---------|----------------------|
G|--7~~~~------------|--4~~~~------------|---------|----------------------|
D|--7~~~~------------|--4~~~~------------|--5~~~~--|--7~~------------7~~--|
A|--5~~~~------------|--2~~~~------------|--5~~~~--|--7~~------------7~~--|
E|-------------------|-------------------|--3~~~~--|--5~~------------5~~--|

V. REFRAIN

Both guitars
e|------------|----------------------|------------|
B|------------|----------------------|------------|
G|--4~~-------|-------7-7--7-6-6--6--|--4~~-------|
D|--4~~--2~~--|--7~~--7-7--7-7-7--7--|--4~~--5~~--|
A|--2~~--2~~--|--7~~--5-5--5-4-4--4--|--2~~--5~~--|
E|-------0~~--|--5~~-----------------|-------3~~--|


e|-----------------------------------|
B|-----------------------------------|
G|-----------------------------------|
D|-----------------------------------|
A|------------------4-4-4-4-5-5-7-7--|
E|--5-5-5-5-7-7-7-7------------------|

VI. CHORUS

Gtr 1
e|------------------------------------|------------------------------------|
B|------------------------------------|------------------------------------|
G|--12121211111111111212121111111414--|--1212121111111111121212111111-9-9--|
D|---x-x-x-x-x-x-x-x-x-x-x-x-x-x-x-x--|---x-x-x-x-x-x-x-x-x-x-x-x-x-x-x-x--|
A|--101010-9-9-9-9-9101010-9-9-91212--|--101010-9-9-9-9-9101010-9-9-9-7-7--|
E|------------------------------------|------------------------------------|


e|------------------------------------|------------------------------------|
B|------------------------------------|------------------------------------|
G|--12121212121212121212121214141616--|--14141414141414141414141414141414--|
D|---x-x-x-x-x-x-x-x-x-x-x-x-x-x-x-x--|---x-x-x-x-x-x-x-x-x-x-x-x-x-x-x-x--|
A|--10101010101010101010101012121414--|--12121212121212121212121212121212--|
E|------------------------------------|------------------------------------|


VII. BRIDGE


e|-------------------------|
B|-------------------------|
G|--7~~--7~~--7-9-11-------|
D|--7~~--7~~--x-x--x--8~~--|
A|--5~~--5~~--5-7--9--8~~--|
E|--------------------6~~--|

e|-------------------------|
B|-------------------------|
G|--7~~--7~~--7-9-11-------|
D|--7~~--7~~--x-x--x--8~~--|
A|--5~~--5~~--5-7--9--8~~--|
E|--------------------6~~--|

VIII. (SOLO)
Gtr 1
e|-------------------------------|-----------------------------------|
B|-------------------------------|-----------------------------------|
G|--7-7--7-6-6--6-4-4--4---------|-----------------------------------|
D|--7-7--7-7-7--7-4-4--4-7-7--7--|--5-5-5-5-5-5-5-5-7-7-7-7-7-7-7-7--|
A|--5-5--5-4-4--4-2-2--2-7-7--7--|--5-5-5-5-5-5-5-5-7-7-7-7-7-7-7-7--|
E|-----------------------5-5--5--|--3-3-3-3-3-3-3-3-5-5-5-5-5-5-5-5--|


IX. ADLIB
Gtr 1
e|-----------------------------------|-----------------------------------|
B|-----------------------------------|--3---3---3------------------------|
G|--7---7---7-------0---0---0---0----|----2---2---2-0---0---0---0-2-0----|
D|----7---7---7-5-4---4---4---7---4--|----------------4---4---4-------4--|
A|--5---------------5----------------|--2---------------2----------------|
E|-----------------------------------|-----------------------------------|


e|-----------------------------------|-----------------------------------|
B|--3---3---3------------------------|--3---3---3------------------------|
G|----2---2---2-0---0---0---0-2-0----|----2---2---2-0---0---0---0--------|
D|----------------4---4---4-------4--|----------------4---4---4---4-2-0--|
A|-----------------------------------|--0---------------0----------------|
E|--3---------------3----------------|-----------------------------------|



X. CHORUS

Gtr 1
e|------------------------------------|------------------------------------|
B|------------------------------------|------------------------------------|
G|--12121211111111111212121111111414--|--1212121111111111121212111111-9-9--|
D|---x-x-x-x-x-x-x-x-x-x-x-x-x-x-x-x--|---x-x-x-x-x-x-x-x-x-x-x-x-x-x-x-x--|
A|--101010-9-9-9-9-9101010-9-9-91212--|--101010-9-9-9-9-9101010-9-9-9-7-7--|
E|------------------------------------|------------------------------------|


e|------------------------------------|------------------------------------|
B|------------------------------------|------------------------------------|
G|--12121212121212121212121214141616--|--14141414141414141414141414141414--|
D|---x-x-x-x-x-x-x-x-x-x-x-x-x-x-x-x--|---x-x-x-x-x-x-x-x-x-x-x-x-x-x-x-x--|
A|--10101010101010101010101012121414--|--12121212121212121212121212121212--|
E|------------------------------------|------------------------------------|

e|------------------------------------|------------------------------------|
B|------------------------------------|------------------------------------|
G|--12121211111111111212121111111414--|--1212121111111111121212111111-9-9--|
D|---x-x-x-x-x-x-x-x-x-x-x-x-x-x-x-x--|---x-x-x-x-x-x-x-x-x-x-x-x-x-x-x-x--|
A|--101010-9-9-9-9-9101010-9-9-91212--|--101010-9-9-9-9-9101010-9-9-9-7-7--|
E|------------------------------------|------------------------------------|


e|------------------------------------|------------------------------------|
B|------------------------------------|------------------------------------|
G|--12121212121212121212121214141616--|--14141414141414141414141414141414--|
D|---x-x-x-x-x-x-x-x-x-x-x-x-x-x-x-x--|---x-x-x-x-x-x-x-x-x-x-x-x-x-x-x-x--|
A|--10101010101010101010101012121414--|--12121212121212121212121212121212--|
E|------------------------------------|------------------------------------|


XI. OUTRO

Gtr 1
e|---------|
B|---------|
G|--7~~~~--|
D|--7~~~~--|
A|--5~~~~--|
E|---------|
Suggest correction new What's this?
You can suggest a correction to this tab. Community and Mods will review your correction and vote to approve or reject it.
comments
We did not receive enough feedback on this tab! Please rate:
print report bad tab
1 2 3 4 5
1 comment total.
0 reply
fear-the-reaper 546 wrote on January 14 2010, 02:58 pm

not to bad of a job, this is a good way to play it for beginners

guest
You may want to rate the tab now too:
select rating
Please do not post tabs as comments. Select "correction" instead!