Oops, an error
Loading. Please wait.

Do You Know What They Do To Guys Like Us In Prison Tab

version 2
version 2

Whole song

1,555 views 6 this week
no commentswrite comment
1 2 3 4 5
please rate
add to favorites
launch autoscroll
font size
0
reset
how to read this tab
guitar tuner
Autoscroll
slow
fast
+/-
esc
set tempo
stop
Help us to improve Ultimate-Guitar.com Take our survey!
×
Author
Difficulty
intermediate
Tabbed by: Shavingfome
Email: NathanMorris@Hotmail.co.uk

Tuning: Standard

Bend: ^           eg: 5^7^5: bend five to seven back to five


Intro
Guitar 1
e|---------------------------------------3------2--------------------------|
B|---------------------------------------3--X4--3-X4-----------------------|
G|---3-------8---------8--------6--------2------2--------------------------|
D|-----X8-------X6--------X2-------X8--------------------------------------|
A|---1-------6---------6--------6------------------------------------------|
E|---3-------8---------6--------5------------------------------------------|

                Reapeat the intro 4 times


     Guitar 2
e|-------------------------------------------------------------------------|
B|-------------------------------------------------------------------------|
G|---------------------------------7-7-7-8-7-------------------------------|
D|-----7-7-7-7-5----7-7-7-8-7-5--------------8----8-8-8-10-8-7-------X2----|
A|---------------------------------------------------------------8---------|
E|-------------------------------------------------------------------------|
             on last time it goes like this

e|-------------------------------------------------------------------------|
B|-------------------------------------------------------------------------|
G|----------------------------------7-7-7-8-7----7-8-7-8-7-5-3-2-----------|
D|----7-7-7-7-5-----7-7-7-8-7-5--------------------------------------------|
A|-------------------------------------------------------------------------|
E|-------------------------------------------------------------------------|
 

       Chorus   Guitar 1 and 2
e|-------------------------------------------------------------------------|
B|-------------------------------------------------------------------------|
G|------------------5----------------------7-7-7-7-7-7-8-11-11-11----------|
D|----5-------------5---X-16----3----------x-x-x-x-x-x-x--x--x--x---X2-----|
A|----5---X 16------3-----------3X16-------5-5-5-5-5-5-6--9--9--9----------|
E|----3-------------------------1------------------------------------------|


      Verse 2   Guitar 1
e|-------------------------------------------------------------------------|
B|-------------------------------------------------------------------------|
G|-------------------------------------------------------------------------|
D|---------------5----------3-3-3-3------2--------7------------------------|
A|----5----------3---X12----1-1-1-1------0-x16----5--x16-------------------|
E|----3---X16--------------------------------------------------------------|

e|-------------------------------------------------------------------------|
B|-------------------------------------------------------------------------|
G|-------------------------------------------------------------------------|
D|---------5-----5-----5-----5-----5--------3-3-3-3------2---------7-------|
A|---------5-----5-----5-----5-----3--X12---1-1-1-1------0--X16----5-X16---|
E|-----3-3-3-3-3-3-3-3-3-3-3-3---------------------------------------------|

  Guitar 2   ( Tremelo )
e|-------------------------------------------------------------------------|
B|-------------------------------------------------------------------------|
G|---------------------------------------------------------7--8--7--10--8--|
D|---12--8--10--7--8--5--7--8--7--10--8--7--8--7--5--4--5------------------|
A|-------------------------------------------------------------------------|
E|-------------------------------------------------------------------------|
                         Stop Tremelo Here
e|-------------------|--------------------|
B|-------------------|--------------------|
G|-7-7-8-7-5---------|--7-8-7-8-7-5-3-2---|
D|-----------7-8-7---|--------------------|
A|-------------------|--------------------|
E|-------------------|--------------------|


Reapeat Chorus


Bridge Part 1   Guitar 1 

e|----------------------------------------------|
B|----------------------------------------------|
G|----------------------------------------------|
D|----5----------3---------7---------2----------|
A|----5----------1-X16-----5--X16----0--X16-----|
E|----3----X16----------------------------------|


     Guitar 2
e|----------------------------------------|
B|----------------------------------------|
G|---12--14--15--------14--12--10--14-----|
D|---------------X2-----------------------|
A|---10--12--13--------12--10--8---12-----|
E|----------------------------------------|


Bridge Part 2


Guitar 1 repeat bridge part 1
                                       guitar 1 end on  Guitar 2 end on

e|---------------------------------------|--------------|------------------|
B|---15-----------16-----------13--------|--------------|------------------|
G|------15----X4-----15----X4----15------|--------------|--15--13--15------|
D|---------15-----------15---------15----|---5----------|------------------|
A|---------------------------------------|---5----------|--13--15--13------|
E|---------------------------------------|---3----------|------------------|


Solo   Guitar 1

e|------------------------------------------------------------------------|
B|----6-8-----------------------------------------------------------------|
G|------------5^7^5----------5^7^5----------5^7^5--------------------5----|
D|---------5--------8-7-8-5---------8-7-8----------8-7-5---8-7-5-7-8------|
A|----------------------------------------8--------------8----------------|
E|------------------------------------------------------------------------|

   Very Fast Bit 
 
e|------------------------------------------------------------------------|
B|------------------------------------------------------------------------|
G|------------------------------------------------------------------------|
D|---5-7-8-5-7-8-7-8-10-7-8-10-8-10-12-8-10-12-10-12-13-10-12-13-12-13-15-|
A|------------------------------------------------------------------------|
E|------------------------------------------------------------------------|

e|------------------------------------------------------------|
B|------------------------------13-15-11-13-10-11-10----------|
G|------------12-14-15-12-14-15----------------------12^14----|
D|---12-13-15-------------------------------------------------|
A|------------------------------------------------------------|
E|------------------------------------------------------------|

Still fast

e|------13----12----10---------------------------------|
B|------------------------13----12----12---------------|
G|---12----12----12----12----12----12----12^14^12-10---|
D|-----------------------------------------------------|
A|-----------------------------------------------------|
E|-----------------------------------------------------|

 Tremelo bit

e|----11--13--14--16--18--20--20^---20^-----|
B|------------------------------------------|
G|------------------------------------------|
D|------------------------------------------|
A|------------------------------------------|
E|------------------------------------------|

Guitar 2

e|---------------------------------------------------------|
B|---------------------------------------------------------|
G|--------------8----------------7-------------------------|
D|----5---------8--X16--7--------7-X16---------------------|
A|----5-X 16----6-------7--X16---5-------------------------|
E|----3-----------------5----------------------------------|




    "life is but a"      "DREAM!"        "I wont go down"

e|-------------------|----------------|--------------<5>----------------|
B|-------------------|----------------|---<5>---------------------------|
G|-----3-------------|-----5----------|---------------------------------|
D|-------------------|-----5--X16-----|---------<4>---------------------|
A|-----1---X8--------|-----3----------|---------------------------------|
E|-----3-------------|----------------|---------------------------------|

    "But my friends"
    
e|-------------------------|
B|-------------------------|
G|----7--7--7--7-8-11-11---|
D|-------------------------|
A|----5--5--5--5-6-9--9----|
E|-------------------------|

   Outro

Guitar 1 repeats chorus


Guitar 2

e|--------------------------------------------------------------------|
B|--------------------------------------------------------------------|
G|--12----14------15-----12-----14-----15----10-----14-----15---------|
D|-----X8----X-4-----X4-----X8-----X4-----X4----X8-----X4-----X4------|
A|--10----12------13-----10-----12-----13-----8-----12-----13---------|
E|--------------------------------------------------------------------|

e|--------------------------------|
B|--------------------------------|
G|---7-----14-----15--------------|
D|-----X8------X4----X4-----------|
A|---5-----12-----13--------------|
E|--------------------------------|

   Outro part 2
 
guitar 1

e|-------------------------------|
B|-------------------------------|
G|-------------------------------|
D|-----5---5---5---5---5---5---5-|
A|----------------------------5--|
E|---3---3---3---3---3---3----3--|

  Guitar 2

e|--------------------------------|
B|--------------------------------|
G|--------------------------------|
D|----5---5---5---5---5-5---------|
A|----5---5---5---5---5-5---------|
E|--3-3-3-3-3-3-3-3-3-3-3---------|

Suggest correction
Give kudos to tab author, rate the tab!
1 2 3 4 5
comments
print report bad tab
guest
You may want to rate the tab now too:
select rating
Please do not post tabs as comments. Select "correction" instead!