Oops, an error
Loading. Please wait.

Drowning Lessons Bass Tab

version 1
version 1

Whole song

3,848 views 1 this week
2 commentsread comments
1 2 3 4 5
1 last vote to show rating
add to favorites
launch autoscroll
font size
0
reset
guitar tuner
Autoscroll
slow
fast
+/-
esc
set tempo
stop
Help us to improve Ultimate-Guitar.com Take our survey!
×
My Chemical Romance 
Drowning Lessons
Standard Tuning


Intro
|-------------------------------------------------------------|
|-------------------------------------------------------------|
|5-5-5-5-5-5-5-5-7-7-7-7-7-7-7-7-9-9-9-9-9-9-9-9-9-9-9-9-9-9--|
|-------------------------------------------------------------|

|-------------------------------------------------------------|
|-------------------------------------------------------------|
|5-5-5-5-5-5-5-5-7-7-7-7-7-7-7-7-4-4-4-4-4-4-4-4-5-4-5-5-4-5--| x2
|-------------------------------------------------------------|

Verse
Repeat intro twice

chorus
|----------------------------------------|
|----------------------------------------|
|55-55-55-55-77-77-77-77-44-44-44-44-----| x2
|-----------------------------------55-44|

repeat verse and chorus again

solo
|-----------------------------------|
|-----------------------------------|
|55555555-7-7-7-7-44444444----------| x4
|-------------------------55554444--|


Bridge
|---------------------------------------------------------------------------|
|---------------------------------------------------------------------------|
|--------------------------77777777-2-2-2-55-555-55-555---------------------|
|2-2-2-00-000-00-000-5-5-5------------------------------555-00-0-11-1-222---|

Bridge(Cont.)
|--------------------------------------------------------------|
|--------------------------------------------------------------|
|------------------77777777-222-55-555-55-555------------------|
|00-000-00-000-555----------------------------555-0000-00002---|

Repeat intro 4 times


Outro
|-------------------------------------------------------------------------|
|-------------------------------------------------------------------------|
|55555-5555555-44444-4444444-55555-5555555-44444-4444444-55555-5555555----|
|-------------------------------------------------------------------------|

|-------------------------------------------------|
|-------------------------------------------------|repeat and fade out
|77777-7777777-99999-9999999-1010101010-xx10-xx10-|
|-------------------------------------------------|


Suggest correction
Give kudos to tab author, rate the tab!
1 2 3 4 5
comments
print report bad tab
2 comments total.
0 reply
bass mad =] 10 Dec 03, 2007 02:13 PM

You havent actually stated the 'verse'

0 reply
hidgfujzaieity 173 Dec 03, 2007 03:13 PM

for the verse you play the intro.

guest
You may want to rate the tab now too:
select rating
Wanna post a correction for this tab? Suggest correction