Oops, an error
Loading. Please wait.

Drowning Lessons Tab

version 1
version 1

Intro

Whole song

2,163 views 1 this week
no commentswrite comment
1 2 3 4 5
please rate
add to favorites
launch autoscroll
font size
0
reset
how to read this tab
guitar tuner
Tab Pro tools
  • play this tab
  • loop segment
  • change instrument
  • show fretboard
  • metronome
×
Best way to learn
"Drowning Lessons"
Autoscroll
slow
fast
+/-
esc
set tempo
stop
Contributor
Difficulty
intermediate
----------------------*---------------------------|
----------------------*-10--9---------------------|
-14--13----14--13-----*-------9---11--11----------|
-(12)---14-(14)-(14)—14*--------------------------|Repeat till *
-(12)------(14)-------*-9-~~~~~---9---11----------|
-10-~~~~~-12-~~~~~-*-------------------12---------|

*: (The Ending of the Intro)
-------------5-----------------------------------|
--9-----9----7-----------------------------------|
--x-----x----7-----------------------------------|
--x-----x----7-----------------------------------|
--4-----7----5-----------------------------------|
-------------x-----------------------------------|


~~~~~: always the same tone
x: Mute it (lay your finger a little bit on the string, DON'T push it onto the board)

- that should be right.

Standart Tuning please.
And something to add about the (.):
I play this notes, you don't have to, but if u play that alone it sounds much better.

Plz give Comments.

And I selected Intermediate because u have to hold the strings very different each changing cord
comments
We did not receive enough feedback on this tab! Please rate:
print report bad tab
1 2 3 4 5
I want to post or [tab]
guest
You may want to rate the tab now too:
select rating
Please do not post tabs as comments. Select "correction" instead!