Oops, an error
Loading. Please wait.

Drowning Lessons Tab

version 1
version 1

Whole song

12,238 views 9 this week
6 commentsread comments
1 2 3 4 5
x 8
add to favorites
launch autoscroll
font size
0
reset
how to read this tab
guitar tuner
Autoscroll
slow
fast
+/-
esc
set tempo
stop
Help us to improve Ultimate-Guitar.com Take our survey!
×
MY CHEMICAL ROMANCE-DROWNING LESSONS

intro
e|--555/444000--X3---00/22-----------555/444000--X2--444/222444-4-4-2----------| 
B|-----------------------------------------------------------------------------| 
G|-----------------------------------------------------------------------------| 
D|--------------------------7766------------------------------------------7766-| 
A|--------------------------7766------------------------------------------7766-| 
E|--------------------------7766------------------------------------------7766-| x4

intro part 2
e|--------------------------------------------------------------------| 
B|--------------------------------------------------------------------| 
G|---777-7--7-7-7-999-9--9-9-9-666-6--6-6-6---------------------------| 
D|---777-7--7-7-7-999-9--9-9-9-666-6--6-6-6--77776666-----------------| 
A|---555-5--5-5-5-777-7--7-7-7-444-4--4-4-4--77776666-----------------| 
E|-------------------------------------------77776666-----------------| x2

intro x2
intro part 2 X2 

verse
e|--------------------------------------------------------------------| 
B|--------------------------------------------------------------------| 
G|--7-6--7-6-9-9--7-6-9-----------7-6-9--7-6-9-9-11-9-13-11-13-11-----| 
D|--x-x--x-x-x-x--x-x-x-----------x-x-x--x-x-x-x-x--x-xx-x--xx-x------| 
A|--5-4--5-4-7-7--5-4-7-55/4/2/0--5-4-7--5-4-7-7-9--7-11-9--11-9------| 
E|--------------------------------------------------------------------| 


e|--------------------------------------------------------------------| 
B|--------------------------------------------------------------------| 
G|--14-13-14-13-16-16-18-16-18-18-18/19/18/16/14----------------------| 
D|--xx-xx-xx-xx-xx-xx-xx-xx-xx-xx-xx/xx/xx/xx/xx----------------------| 
A|--12-11-12-11-14-14-16-14-16-16-16/17/16/14/12----------------------| 
E|--------------------------------------------------------------------| 


e|--------------------------------------------------------------------| 
B|--------------------------------------------------------------------| 
G|--14-13-9--14-13-9-11-9-13/14/13/14/13------------------------------| 
D|--xx-xx-x--xx-xx-x-x--x-xx/xx/xx/xx/xx------------------------------| 
A|--12-11-7--12-11-7-9--7-11/12/11/12/11------------------------------| 
E|--------------------------------------------------------------------| 

bridge 
e|--------------------------------------------------------------------| 
B|--------------------------------------------------------------------| 
G|--------------------------------------------------------------------| 
D|--4-4--22222222--7-7--77777777--9-9------------7-7-22223333---------| 
A|--4-4--22222222--7-7--55554444--9-9--55555555--7-7-22223333---------| 
E|--4-4--22222222--7-7------------9-9--00000000--7-7-22223333---------| 

e|--------------------------------------------------------------------| 
B|--------------------------------------------------------------------| 
G|--------------------------------------------------------------------| 
D|--4-4--22222222--7-7--77777777--9-9------------7-7-2222-77777-------| 
A|--4-4--22222222--7-7--55554444--9-9--55555555--7-7-2222-77777-------| 
E|--4-4--22222222--7-7------------9-9--00000000--7-7-2222-77777-------| 

Intro X4 

third time 
e|--5-5-4--5-5-4--5-5-4--5-5-4------555/444000--X2--444/222/444-4-4-2-| 
B|--------------------------------------------------------------------| 
G|--------------------------------------------------------------------| 
D|--------------------------------------------------------------------| 
A|--------------------------------------------------------------------| 
E|--------------------------------------------------------------------| 

outro
e|--------------------------------------------------------------------| 
B|--------------------------------------------------------------------| 
G|-14-13-9--14-13-9--14-13-9--9/11-11-11-9/11-11-11-------------------| 
D|-xx-xx-x--xx-xx-x--xx-xx-x--x/x--x--x--x/x--x--x--------------------| 
A|-12-11-7--12-11-7--12-11-7--7/9--9--9--7/9--9--9--------------------| 
E|--------------------------------------------------------------------| 

e|--------------------------------------------------------------------| 
B|--------------------------------------------------------------------| 
G|-14-13-9--14-13-9--13-11-13-13-13-13-13-11--------------------------| 
D|-xx-xx-x--xx-xx-x--xx-x--xx-xx-xx-xx-xx-x---------------------------| 
A|-12-11-7--12-11-7--11-9--11-11-11-11-11-9---------------------------| 
E|--------------------------------------------------------------------| 

e|--------------------------------------------------------------------| 
B|--------------------------------------------------------------------| 
G|--------------------------------------------------------------------| 
D|--7--7--7--7--7--9--7--7--77----------------------------------------| 
A|--5--4--5--4--5--7--4--5--54----------------------------------------| 
E|--0--0--0--0--0--0--0--0--00----------------------------------------|
Suggest correction
There is a new version of this tab from 4 days ago which you may like more. Go check it out:
comments
print report bad tab
6 comments total. Showing first comments.
0 reply
thursdaysgone 10 Mar 08, 2004 12:00 AM

this song is cool

0 reply
lassise 439 Jul 23, 2004 12:00 AM

you forgot to drop D it

0 reply
MCRrocks 35 Jun 05, 2005 12:00 AM

i don't much care for this tab... the intro is done in octaves, it's okay though i guess.

guest
You may want to rate the tab now too:
select rating
Wanna post a correction for this tab? Suggest correction