Oops, an error
Loading. Please wait.

Drowning Lessons Bass Tab

version 3
version 3

Whole song

956 views 1 this week
2 commentsread comments
1 2 3 4 5
accurate
x 3
add to favorites
launch autoscroll
font size
0
reset
guitar tuner
Autoscroll
slow
fast
+/-
esc
set tempo
stop
Help us to improve Ultimate-Guitar.com Take our survey!
×
Author
Difficulty
Tuning
intermediate
D A D G B E
Intro
G|-------------------------------------------------------------------------|
D|-------------------------------------------------------------------------|
A|-5-5-5-5-5-5-5-5-5-5-5-5-7-7-7-7-7-7-7-7-7-7-7-7-9-9-9-9-9-9-9-9-9-9-9-9-|
D|-------------------------------------------------------------------------|

G|--------------------------|
D|--------------------------|
A|-9-9-9-9-9-9--------------|
D|-------------\6-6-6-7-7-7-|

G|-------------------------------------------------------------------------|
D|-------------------------------------------------------------------------|
A|-5-5-5-5-5-5-5-5-5-5-5-5-7-7-7-7-7-7-7-7-7-7-7-7-4-4-4-4-4-4-4-4-4-4-4-4-|
D|-------------------------------------------------------------------------|

G|-------------------------|
D|-------------------------|
A|-4-5-5-4-4-5-5-4-4-4-5-4-|
D|-------------------------|

Verse is the same as intro

Interlude/Chorus
G|-------------------------------------------------------------|
D|-------------------------------------------------------------|
A|-5-5~-5-5~-5-5~-5-5~-7-7~-7-7~-7-7~-7-7~-4-4~-4-4~-4-4~-4-4~-|
D|-------------------------------------------------------------|

G|---------------------|
D|---------------------|
A|---------------------|
D|-7-7~-7-7~-6-6~-6-6~-|

Verse again

Interlude/chorus again

Bridge
G|-----------------------------------------------------------------------|
D|-----------------------------------------------------------------------|
A|-------------------------\4-5-5-5-4-5-5-5-4-5-4------------------------|
D|-4-4-4~-\2-2-2-2-2-7-7-7~-----------------------9-9-9~-\0-0-0-0-0------|

G|-----------------------------------------------------------------------|
D|-----------------------------------------------------------------------|
A|----------------------------------------------/7-5-4-------------------|
D|-7-7-7~-\2-2-2-3-3-3-4-4-4~-\2-2-2-2-2-7-7-7~--------9-9-9~-\0-0-0-0-0-|

G|---------------------------|
D|---------------------------|
A|---------------------------|
D|-7-7-7~-\2-2-2-2-3-3-3-3-3-|

Interlude/chorus

Bridge

Out chorus which is the intro

Outro (the last part of the song after the short pause)
G|---------------------------------------------------|
D|---------------------------------------------------|
A|-5-5-5-5-5~-5-5-5-5-5-5-5-4-4-4-4-4~-4-4-4-4-4-4-4-| x2
D|---------------------------------------------------|

G|---------------------------------------------------|
D|---------------------------------------------------|
A|-5-5-5-5-5~-5-5-5-5-5-5-5-7-7-7-7-7~-7-7-7-7-7-7-7-|
D|---------------------------------------------------|

G|--------------------------------------------------------------|
D|--------------------------------------------------------------|
A|-9-9-9-9-9~-9-9-9-9-9-9-9-9-10-10-10-10-10~-10-10-10-10-10-10-|
D|--------------------------------------------------------------|
Suggest correction
Give kudos to tab author, rate the tab!
1 2 3 4 5
comments
print report bad tab
2 comments total.
0 reply
dvanwyk 4,676 wrote on December 15 2007, 06:10 am

Mikey's bass is tuned to Drop D.It's on the right track but in the wrong tunning.

0 reply
Mcr14 7,513 wrote on December 17 2007, 04:13 am

i have put it in drop d?

guest
You may want to rate the tab now too:
select rating
Wanna post a correction for this tab? Suggest correction