Oops, an error
Loading. Please wait.

Drowning Lessons Tab

version 3
version 3

Whole song

23,546 views 45 this week
14 commentsread comments
1 2 3 4 5
excellent!
x 23
add to favorites
launch autoscroll
font size
0
reset
how to read this tab
guitar tuner
Autoscroll
slow
fast
+/-
esc
set tempo
stop
Help us to improve Ultimate-Guitar.com Take our survey!
×
Author
----------------------------------------------------------------------------
                             Drowning Lessons - My Chemical Romance
----------------------------------------------------------------------------
Tabbed by:BDonGraffiti
Email:SprtXplrer@aol.com

Tuning:Standard

Guitar 1:Intro [pt 1]
e|---------------------------|                  |---------------|
B|---------------------------|                  |---------------|
G|-14-14-14-14-14-13-9-9-9-9-|                  |-9-9-11-11-11--|
D|---------------------------|3x then after 3x  |---------------|
A|-12-12-12-12-12-11-7-7-7-7-|                  |-7-7--9--9--9--|
E|---------------------------|                  |---------------|

Guitar2:Intro [pt1 & 2]
e|--------------------------------------------------------------|
B|--------------------------------------------------------------|
G|-7~~~-9~~~-11~~~~-xx-9-xx-9-7~~~-9~~~-6~~~-7-7-x-7-7-x-7------|
D|-7~~~-9~~~-11~~~~-xx-9-xx-9-7~~~-9~~~-6~~~-7-7-x-7-7-x-7------|
A|-5~~~-7~~~--9~~~~-xx-7-xx-7-5~~~-7~~~-4~~~-5-5-x-5-5-x-5------|
E|--------------------------------------------------------------|

Guitar 1:Intro [pt 2]
e|---------------------------|  |------------------------------------------|
B|---------------------------|  |------------------------------------------|
G|-14-14-14-14-14-13-9-9-9-9-|  |-13-13-13-13-13-11-13-13-13-13-13-13-11---|
D|---------------------------|2x|------------------------------------------|
A|-12-12-12-12-12-11-7-7-7-7-|  |-11-11-11-11-11--9-11-11-11-11-11-11--9---|
E|---------------------------|  |------------------------------------------|

Verse: Both guitars repeat intro

Guitar 1: After Verse
e|------------------------------------------|
B|------------------------------------------|
G|-7-7-7-7-6-7-7-7-7-7/9-7-7-7-7-6-7-6-7-6--|
D|-7-7-7-7-6-7-7-7-7-7/9-7-7-7-7-6-7-6-7-6--| 2x
A|-5-5-5-5-4-5-5-5-5-5/7-5-5-5-5-4-5-4-5-4--|
E|------------------------------------------|

Guitar 2: After Verse [palm muted] 2x
e|-------------------------------------------------------------------------|
B|-------------------------------------------------------------------------|
G|-7-7---7-7--7-7--7-7-9-9---9-9--9-9--9-9-6-6---6-6--6-6--6-6-------------|
D|-7-7---7-7--7-7--7-7-9-9---9-9--9-9--9-9-6-6---6-6--6-6--6-6-7-7-7-7-6-6-|
A|-5-5---5-5--5-5--5-5-7-7---7-7--7-7--7-7-4-4---4-4--4-4--4-4-7-7-7-7-6-6-|
E|-------------------------------------------------------------5-5-5-5-4-4-|
   . .   . .  . .  . . . .   . .  . .  . . . .   . .  . .  . . . . . . . .
Verse: Both Guitars repeat intro

After Verse: Both guitars repeat after verse

Guitar 1: Solo
e|----------------------------------|  |-----------------------------------|
B|----------------------------------|  |-----------------------------------|
G|-19-19-19-19-19-18-18-18-18-18-18-|  |-19-18-16-14-14-13-19-19-18-21-----|
D|----------------------------------|3x|-----------------------------------|
A|-17-17-17-17-17-16-16-16-16-16-16-|  |-17-16-14-12-12-11-17-17-16-19-----|
E|----------------------------------|  |-----------------------------------|

e|--------------------------------------------------------17-17-17-17-17-|
B|-------------------17-19-19-19-19-19-17-21-21-21-21-21-----------------|
G|-xx-19-xx-18-xx-21--------------------------------------13-13-13-13-13-|
D|-xx----xx----xx----14-16-16-16-16-16-14-18-18-18-18-18-----------------|
A|-xx-17-xx-16-xx-19-----------------------------------------------------|
E|-----------------------------------------------------------------------|

e|-17-17-17-17-17-16-12-12-12-12-xx-17-xx-16-xx-19-19-21-21-21-21-21-19-21-|
B|-------------------------------xx----xx----xx----------------------------|
G|-13-13-13-13-13-12--9--9--9--9-xx-13-xx-12-xx-16-16-18-18-18-18-18-16-18-|
D|-------------------------------------------------------------------------|
A|-------------------------------------------------------------------------|
E|-------------------------------------------------------------------------|


e|-22-21-19-17-16-17-17-17-17-17-16-12-12-xx-17-xx-16-xx-12-14-12-16-17----|
B|----------------------------------------xx----xx----xx-------------------|
G|-19-18-16-13-12-13-13-13-13-13-12--9--9-xx-13-xx-12-xx--9-11--9-12-13----|
D|-------------------------------------------------------------------------|
A|-------------------------------------------------------------------------|
E|-------------------------------------------------------------------------|

Guitar 2: Solo
e|-------------------------------------------------|play over and over
B|-------xx-9-xx-10-xx-12-xx-9---------------------|again until solo
G|-------xx---xx----xx----xx-----------------------|ends.
D|-6-7-7-xx-6-xx-7--xx--9-xx-6-6-7-7~-6-7-6-9-7-6--|
A|-------------------------------------------------|
E|-------------------------------------------------|


Guitar 1: Bridge
e|-------------------------------------------------------------------------|
B|-------------------------------------------------------------------------|
G|-------------------------------------------------------------------------|
D|-4-4-2-2--2-2--2-7-7-----------4-4-2-2--2--2-7-7-2-3-play 2 then-2-2-3-3-|
A|-4-4-2-2--2-2--2-7-7-4-5-4-5-4-4-4-2-2--2--2-7-7-2-3-------------2-2-3-3-|
E|-2-2-0-0--0-0--0-5-5-----------2-2-0-0--0--0-5-5-0-1-------------0-0-1-1-|
       . .  . .  .                   . .  .  .                     . . . .

Guitar 2: Bridge
e|-------------------------------------------------|2nd part similar to
B|-------------------------------------------------|guitar 1/ first part
G|-------------------------------------------------|of guitar 2
D|-4-4--------------7-7-----------4-4-2h4-2h4-2h4--|
A|-4-4--3h4-3h4-3h4-7-7-4-5-4-5-4~4-4--------------|
E|-2-2--------------5-5-----------2-2--------------|

both guitars play intro

and that's it, that end part doesn't really matter to me..


| /  slide up
| \  slide down
| h  hammer-on
| p  pull-off
| ~  vibrato
| +  harmonic
| x  Mute note
| .  Palm Mute
===========================================================================
Suggest correction
comments
print report bad tab
14 comments total. Showing first comments.
-1 reply
mcr_01_fan 697 wrote on August 11 2005, 12:00 am

Pretty good! 4 stars! ****

-1 reply
codester 10 wrote on August 11 2005, 12:00 am

not bad at all,
i gave it a 5

-1 reply
BDonGraffiti 190 wrote on December 13 2005, 11:06 am

why do you have to be so hard on me, mcr 01 fan person thing? hahha

guest
You may want to rate the tab now too:
select rating
Wanna post a correction for this tab? Suggest correction