Oops, an error
Loading. Please wait.

Drowning Lessons Guitar Pro

version 4
version 4
1,933 views 3 this week
2 commentsread comments
1 2 3 4 5
excellent!
x 4
add to favorites
guitar tuner
Autoscroll
slow
fast
+/-
esc
set tempo
stop
Difficulty
Filesize
Instruments
intermediate
105 Kb
rhythm guitar #1, rhythm guitar #2, lead guitar, bass, percussion
"Drowning Lessons"
demo version
Play now

or get full version for Free

Get full version now!
To learn and play this song
in Tab Pro, start free trial
Start free trial

or get $10 off Welcome Bonus

Get welcome bonus
Get access to Tab Pro version of “Drowning Lessons”!
Tab Pro is a premium guitar tab service, available on PC, Mac, iOS and Android
START FREE TRIAL
To download “Drowning Lessons” Guitar Pro tab click button below
Please note that you must have Guitar Pro software installed on your
computer in order to view this file.
comments
report bad tab
2 comments total.
0 reply
jabez777 wrote on April 4 2013, 09:36 am

pretty close. but the rhythm sounds like this to me.

|-----------S---------------------|
|-10--1010109-9-------------------|
|-x---x-x-x---x---9-9---9-9-------|
|-7---7-7-7---7---7-7---7-7---x-x-|
|-5---5-5-5---5---5-5---5-5---x-x-|
|---------------------------------|

|-----------S---------------------|
|-10--1010109-9-------------------|
|-x---x-x-x---x---9-9---9-9-------|
|-7---7-7-7---7---7-7---7-7---x-x-|
|-7---7-7-7---7---7-7---7-7---x-x-|
|---------------------------------|

|-----------S---------------------|
|-10--1010109-9-------------------|
|-x---x-x-x---x---9-9---9-9---9-9-|
|-7---7-7-7---7---7-7---7-7---7-7-|
|-9---9-9-9---9---9-9---9-9---9-9-|
|---------------------------------|

etc...

there are also some notes that change during the bridge, such as

|---------------------------------|
|---------------------------------|
|---------------------------------|
|---------2h4---------4h6-----6h7-|
|-2---2-------2---2-------2-------|
|-0---0-------0---0-------0-------|

etc etc...

not sure if anyone cares about this song anymore, but i figured i'd post that here cause it's difficult to hear.

0 reply
jabez777 wrote on April 4 2013, 09:40 am

also the either measure goes like this

|---------------------------------|
|-9-9-9-9-----7-7-7-7-----7-7-7-7-|
|-x-x-x-x---x-x-x-x-x---x-x-x-x-x-|
|-7-7-7-7---x-7-7-7-7---x-7-7-7-7-|
|-5-5-5-5---x-5-5-5-5---x-5-5-5-5-|
|---------------------------------|

I want to post or [tab]
guest
You may want to rate the tab now too:
select rating
Please do not post tabs as comments. Select "correction" instead!