Oops, an error
Loading. Please wait.

Drowning Lessons Tab

version 4
version 4

Whole song

19 views 19 this week
no commentswrite comment
1 2 3 4 5
2 more votes to show rating
add to favorites
launch autoscroll
font size
0
reset
how to read this tab
guitar tuner
Autoscroll
slow
fast
+/-
esc
set tempo
stop
Help us to improve Ultimate-Guitar.com Take our survey!
×
Author
About this tab version
I think this is the most accurate version on the site. Was this info helpful? Yes No
Intro
e|-------------------------------------------------|
B|-------------------------------------------------|
G|-14--14-14-14\13--13-13-9--9-9-9--9-9------------|
D|-X---X--X--X--X---X--X--X--X-X-X--X-X------------|
A|-12--12-12-12\11--11-11-7--7-7-7--7-7------------|
E|-------------------------------------------------|X3

                       PM---  PM----
e|---------------------------------------------------|
B|---------------------------------------------------|
G|-11-11--11-11--11-11\------------------------------|
D|-X--X---X--X---X--X--------------------------------|
A|-9--9---9--9---9--9\--------7-----7----------------|
E|-----------------------4-4----5-5------------------|

e|-------------------------------------------------|
B|-------------------------------------------------|
G|-14--14-14-14\13--13-13-9--9-9-9--9-9------------|
D|-X---X--X--X--X---X--X--X--X-X-X--X-X------------|
A|-12--12-12-12\11--11-11-7--7-7-7--7-7------------|
E|-------------------------------------------------|X2

e|----------------------------------------------------------------|
B|----------------------------------------------------------------|
G|-13--13-13-11--11-11-13-13-13-13-13-13-13-13--13--13-13--13-11--|
D|-X---X--X--X---X--X--X--X--X--X--X--X--X--X---X---X--X---X--X---|
A|-11--11-11-9---9--9--11-11-11-11-11-11-11-11--11--11-11--11-9---|
E|----------------------------------------------------------------|

Verse X2
e|-------------------------------------------------|
B|-------------------------------------------------|
G|-14--14-14-14\13--13-13-9--9-9-9--9-9------------|
D|-X---X--X--X--X---X--X--X--X-X-X--X-X------------|
A|-12--12-12-12\11--11-11-7--7-7-7--7-7------------|
E|-------------------------------------------------| X3

                       PM---  PM----
e|---------------------------------------------------|
B|---------------------------------------------------|
G|-11-11--11-11--11-11\------------------------------|
D|-X--X---X--X---X--X--------------------------------|
A|-9--9---9--9---9--9\--------7-----7----------------|
E|-----------------------4-4----5-5------------------|

e|-------------------------------------------------|
B|-------------------------------------------------|
G|-14--14-14-14\13--13-13-9--9-9-9--9-9------------|
D|-X---X--X--X--X---X--X--X--X-X-X--X-X------------|
A|-12--12-12-12\11--11-11-7--7-7-7--7-7------------|
E|-------------------------------------------------| X2

e|----------------------------------------------------------------|
B|----------------------------------------------------------------|
G|-13--13-13-11--11-11-13-13-13-13-13-13-13-13--13--13-13--13-11--|
D|-X---X--X--X---X--X--X--X--X--X--X--X--X--X---X---X--X---X--X---|
A|-11--11-11-9---9--9--11-11-11-11-11-11-11-11--11--11-11--11-9---|
E|----------------------------------------------------------------|

Interlude/Chorus X2
PM----     PM----  PM----  PM----
e|--------------------------------------------------|
B|--------------------------------------------------|
G|-----7--7-------7-------7-------6-----------------|
D|-----7--7-------7-------7-------7-----------------|
A|-5-5-------5-5-----5-5-----5-5--------------------|
E|--------------------------------------------------|

PM----     PM----  PM----  PM----
e|--------------------------------------------------|
B|--------------------------------------------------|
G|-----7--7-------7-------7-------7/9---------------|
D|-----7--7-------7-------7-------7-----------------|
A|-7-7-------7-7-----7-7-----7-7--------------------|
E|--------------------------------------------------|

PM----     PM----  PM----  PM-----
e|--------------------------------------------------|
B|--------------------------------------------------|
G|-----7--7-------7-------7-------6-----------------|
D|-----7--7-------7-------7-------7-----------------|
A|-4-4-------4-4-----4-4-----4-4--------------------|
E|--------------------------------------------------|

PM---  PM---   PM---  PM----
e|--------------------------------------------------|
B|--------------------------------------------------|
G|-----7-----6------7-------6-----------------------|
D|-----7-----7------7-------7-----------------------|
A|--------------------------------------------------|
E|-5-5---5-5----4-4----4-4--------------------------|

Repeat Verse
Repeat Interlude/Chorus

Bridge/solo
e|-----------------------------------------------|
B|-----------------------------------------------|
G|-19--19-19-19-19-18--18-18-18-18-18-18-18-18---|
D|-X---X--X--X--X--X---X--X--X--X--X--X--X--X----|
A|-17--17-17-17-17-16--16-16-16-16-16-16-16-16---|
E|-----------------------------------------------| X3

e|-----------------------------------------------|
B|-----------------------------------------------|
G|-19-19-19-18-18-18-16-16-14-14-14-13--13-13-13-|
D|-X--X--X--X--X--X--X--X--X--X--X--X---X--X--X--|
A|-17-17-17-16-16-16-14-14-12-12-12-11--11-11-11-|
E|-----------------------------------------------|

e|---------------------------------------------------|
B|---------------------------------------------------|
G|-19-19-19-19-18-18-18-18-21-21-21-21-21-21-21-21---|
D|-X--X--X--X--X--X--X--X--X--X--X--X--X--X--X--X----|
A|-17-17-17-17-16-16-16-16/19-19-19-19-19-19-19-19---|
E|---------------------------------------------------|

e|-----------------------|
B|-----------------------|
G|-19--18--21--21--21----|
D|-X---X---X---X---X-----|
A|-17--16--19--19--19----|
E|-----------------------|

e|----------------------------------------------------------------------------------------|
B|-19-19-19-19--17-17-17-17--21-21-21-21-21-21-21-21--22-22-22-22-22-22-22-22--22--21--22-|
G|-X--X--X--X---X--X--X--X---X--X--X--X--X--X--X--X---X--X--X--X--X--X--X--X---X---X---X--|
D|-16-16-16-16--14-14-14-14--18-18-18-18-18-18-18-18--19-19-19-19-19-19-19-19--19--18--19-|
A|----------------------------------------------------------------------------------------|
E|----------------------------------------------------------------------------------------|

e|----------------------------------------------------------------------------------------------------|
B|-----------------------------------------------------17--22--21--17--17--19-19--17-17--21-21-21-21--|
G|-16-18-18-16-16-18-18-16-16-14-14-13-13-14-14-13-13---X--X---X---X---X---X--X---X--X---X--X--X--X---|
D|-----------------------------------------------------14--19--18--14--14--16-16--14-14--18-18-18-18--|
A|----------------------------------------------------------------------------------------------------|
E|----------------------------------------------------------------------------------------------------|

e|---------------------------------------|
B|-21-21-21-21--22-22--21--22-22--21--19-|
G|-X--X--X--X---X--X---X---X--X---X---X--|
D|-18-18-18-18--19-19--18--19-19--18--16-|
A|---------------------------------------|
E|---------------------------------------|

Bridge
          PM---  PM--- PM--
e|---------------------------------------------------|
B|---------------------------------------------------|
G|---------------------------------------------------|
D|-4--4--4-------------------------------------------|
A|-4--4--4-------4-----4---4-------------------------|
E|-2--2--2--0-0----0-0---0---------------------------|


e|-------------------------------------------------|
B|-------------------------------------------------|
G|----------9--7--6--------------------------------|
D|-7--7--7--X--X--X--------------------------------|
A|-7--7--7--7--5--4--------------------------------|
E|-5--5--5-----------------------------------------|

           PM----   PM----  PM--
e|---------------------------------------------------|
B|---------------------------------------------------|
G|---------------------------------------------------|
D|-9--9--9-------------------------------------------|
A|-9--9--9---------7-------9----11-------------------|
E|-7--7--7--10-10----10-10---10----------------------|

e|-------------------------------------------------|
B|-------------------------------------------------|
G|-------------------------------------------------|
D|-7--7--7---2--2--2-3--3--3-4--4--4---------------|
A|-7--7--7---2--2--2-3--3--3-4--4--4---------------|
E|-5--5--5---0--0--0-1--1--1-2--2--2---------------|

 PM---  PM--- PM--
e|----------------------------------------------|
B|----------------------------------------------|
G|----------------------------------------------|
D|----------------------------------------------|
A|------4-----4---4-----------------------------|
E|-0-0----0-0---0-------------------------------|

e|-------------------------------------------------|
B|-------------------------------------------------|
G|----------13---14---16---------------------------|
D|-7--7--7--X----X----X----------------------------|
A|-7--7--7--11---12---14---------------------------|
E|-5--5--5-----------------------------------------|

           PM----   PM----  PM--
e|---------------------------------------------------|
B|---------------------------------------------------|
G|---------------------------------------------------|
D|-9--9--9-------------------------------------------|
A|-9--9--9---------7-------9----11-------------------|
E|-7--7--7--10-10----10-10---10----------------------|

           PM--------------------
e|---------------------------------------------------|
B|---------------------------------------------------|
G|---------------------------------------------------|
D|-7--7--7---2--2--2--2--3-3-3-3-3-------------------|
A|-7--7--7---2--2--2--2--3-3-3-3-3-------------------|
E|-5--5--5---0--0--0--0--1-1-1-1-1-------------------|

e|-------------------------------------------------|
B|-------------------------------------------------|
G|-14--14-14-14\13--13-13-9--9-9-9--9-9------------|
D|-X---X--X--X--X---X--X--X--X-X-X--X-X------------|
A|-12--12-12-12\11--11-11-7--7-7-7--7-7------------|
E|-------------------------------------------------| X3

                        PM---  PM-------
e|---------------------------------------------------|
B|---------------------------------------------------|
G|-11-11--11-11--11-11\------------------------------|
D|-X--X---X--X---X--X--------------------------------|
A|-9--9---9--9---9--9\--------7-----7----------------|
E|-----------------------4-4----5-5------------------|

e|-------------------------------------------------|
B|-------------------------------------------------|
G|-14--14-14-14\13--13-13-9--9-9-9--9-9------------|
D|-X---X--X--X--X---X--X--X--X-X-X--X-X------------|
A|-12--12-12-12\11--11-11-7--7-7-7--7-7------------|
E|-------------------------------------------------| X2

e|----------------------------------------------------------------|
B|----------------------------------------------------------------|
G|-13--13-13-11--11-11-13-13-13-13-13-13-13-13--13--13-13--13-11--|
D|-X---X--X--X---X--X--X--X--X--X--X--X--X--X---X---X--X---X--X---|
A|-11--11-11-9---9--9--11-11-11-11-11-11-11-11--11--11-11--11-9---|
E|----------------------------------------------------------------|

Outro/Chorus thing
e|--------------------------------------------------|
B|--------------------------------------------------|
G|-14--14-14---13--13-13--9-9--9-9--9-9-------------|
D|-X---X--X----X---X--X---X-X--X-X--X-X-------------|
A|-12--12-12---11--11-11--7-7--7-7--7-7-------------|
E|--------------------------------------------------| X3

                        PM---    PM-----
e|---------------------------------------------------|
B|---------------------------------------------------|
G|-11-11--11-11--11-11\--------13-------14-----------|
D|-X--X---X--X---X--X----------X--------X------------|
A|-9--9---9--9---9--9\---11-11-11-12-12-12-----------|
E|---------------------------------------------------|

e|--------------------------------------------------|
B|--------------------------------------------------|
G|-14--14-14---13--13-13--9-9--9-9--9-9-------------|
D|-X---X--X----X---X--X---X-X--X-X--X-X-------------|
A|-12--12-12---11--11-11--7-7--7-7--7-7-------------|
E|--------------------------------------------------| X2

e|----------------------------------------------------------------|
B|----------------------------------------------------------------|
G|-13--13-13-11--11-11-13-13-13-13-13-13-13-13--13--13-13--13-11--|
D|-X---X--X--X---X--X--X--X--X--X--X--X--X--X---X---X--X---X--X---|
A|-11--11-11-9---9--9--11-11-11-11-11-11-11-11--11--11-11--11-9---|
E|----------------------------------------------------------------|

e|--------------------------------------------------|
B|--------------------------------------------------|
G|-14--14--13---------------------------------------|
D|-X---X---X----------------------------------------|
A|-12--12--11---------------------------------------|
E|--------------------------------------------------| X3

              PM---    PM------
e|----------------------------------------------------|
B|----------------------------------------------------|
G|-14--14--13--------13-------14----------------------|
D|-X---X---X---------X--------X-----------------------|
A|-12--12--11--11-11-11-12-12-12----------------------|
E|----------------------------------------------------|

e|-----------------------------------------------------|
B|-----------------------------------------------------|
G|-14-14-14-14-14-14-13-14-14-14-14-14-14--------------|
D|-X--X--X--X--X--X--X--X--X--X--X--X--X---------------|
A|-12-12-12-12-12-12-11-12-12-12-12-12-12--------------|
E|-----------------------------------------------------| X3
 
       PM-  PM------------------
e|-----------------------------------------------------|
B|-----------------------------------------------------|
G|-6-6--6---6--6-6-6-6-6-6-6-6-6-----------------------|
D|-6-6--6---6--6-6-6-6-6-6-6-6-6-----------------------|
A|-4-4--4-4-4--4-4-4-4-4-4-4-4-4-----------------------|
E|-----------------------------------------------------|

e|--------------------------------------------------|
B|--------------------------------------------------|
G|-14-14-14-14-14-14-13-14-14-14-14-14-14-----------|
D|-X--X--X--X--X--X--X--X--X--X--X--X--X------------|
A|-12-12-12-12-12-12-11-12-12-12-12-12-12-----------|
E|--------------------------------------------------| X2

e|--------------------------------------------------|
B|--------------------------------------------------|
G|-14-14-14-14-14-14-13-13-13-13-13-13-13-----------|
D|-X--X--X--X--X--X--X--X--X--X--X--X--X------------|
A|-12-12-12-12-12-12-11-11-11-11-11-11-11-----------|
E|--------------------------------------------------|

e|--------------------------------------------------|
B|--------------------------------------------------|
G|-14-14-14-14-14-14-13-14-14-14-14-14-14-----------|
D|-X--X--X--X--X--X--X--X--X--X--X--X--X------------|
A|-12-12-12-12-12-12-11-12-12-12-12-12-12-----------|
E|--------------------------------------------------| X3

e|----------------------------------------------------------------|
B|----------------------------------------------------------------|
G|-14-14-14-14-14-14-13-14-14-14-14-14-14--13--13-13--13-11-------|
D|-X--X--X--X--X--X--X--X--X--X--X--X--X---X---X--X---X--X--------|
A|-12-12-12-12-12-12-11-12-12-12-12-12-12--11--11-11--11-9--------|
E|----------------------------------------------------------------|

Bridge thing (Slower and less distortion)
e|--------------------------------------------------|
B|--------------------------------------------------|
G|-14--14-14---13--13-13--9-9--9-9--9-9-------------|
D|-X---X--X----X---X--X---X-X--X-X--X-X-------------|
A|-12--12-12---11--11-11--7-7--7-7--7-7-------------|
E|--------------------------------------------------| X3

e|-------------------------------------------------|
B|-------------------------------------------------|
G|-9--11-11--11-11-11------------------------------|
D|-X--X--X---X--X--X-------------------------------|
A|-7--9--9---9--9--9-------------------------------|
E|-------------------------------------------------| X2

e|--------------------------------------------------|
B|--------------------------------------------------|
G|-14--14-14---13--13-13--9-9--9-9--9-9-------------|
D|-X---X--X----X---X--X---X-X--X-X--X-X-------------|
A|-12--12-12---11--11-11--7-7--7-7--7-7-------------|
E|--------------------------------------------------| X2

e|----------------------------------------------------------------|
B|----------------------------------------------------------------|
G|-13--13-13-11--11-11-13-13-13-13-13-13-13-13--13--13-13--13-11--|
D|-X---X--X--X---X--X--X--X--X--X--X--X--X--X---X---X--X---X--X---|
A|-11--11-11-9---9--9--11-11-11-11-11-11-11-11--11--11-11--11-9---|
E|----------------------------------------------------------------|

Outro (Distortion back up) X2
e|-------------------------------------------------|
B|-------------------------------------------------|
G|-----6-----6-------------------------------------|
D|-4-7-----7---------------------------------------|
A|-------------------------------------------------|
E|-------------------------------------------------|

e|-------------------------------------------------|
B|-------------------------------------------------|
G|-----6-----6-------------------------------------|
D|---7-----7---------------------------------------|
A|-7-----------------------------------------------|
E|-------------------------------------------------|

e|-------------------------------------------------|
B|-------------------------------------------------|
G|-----6-----6-------------------------------------|
D|-4-7-----7---------------------------------------|
A|-------------------------------------------------|
E|-------------------------------------------------|

e|-------------------------------------------------|
B|-------------------------------------------------|
G|-----6-----6-------------------------------------|
D|---9-----9---------------------------------------|
A|-7-----------------------------------------------|
E|-------------------------------------------------|

e|-------------------------------------------------|
B|-------------------------------------------------|
G|-----6-----6-------------------------------------|
D|-4-7-----7---7-----------------------------------|
A|-------------------------------------------------|
E|-------------------------------------------------|

e|-------------------------------------------------|
B|-------------------------------------------------|
G|----------7--------------------------------------|
D|---7---7-----7-----------------------------------|
A|-7-----------------------------------------------|
E|-------------------------------------------------|

e|-------------------------------------------------|
B|-------------------------------------------------|
G|-------------------------------------------------|
D|-7-9---7--9--7-----------------------------------|
A|-------------------------------------------------|
E|-------------------------------------------------|

e|-------------------------------------------------|
B|-------------------------------------------------|
G|-------------------------------------------------|
D|---7------7--------------------------------------|
A|-5-----5-----5-----------------------------------|
E|-------------------------------------------------|
Suggest correction
Give kudos to tab author, rate the tab!
1 2 3 4 5
comments
print report bad tab
guest
You may want to rate the tab now too:
select rating
Wanna post a correction for this tab? Suggest correction