Oops, an error
Loading. Please wait.

Early Sunsets Over Monroeville Bass Tab

version 1
version 1

Whole song

Interactive

4,730 views 21 this week
no commentswrite comment
1 2 3 4 5
accurate
x 3
add to favorites
launch autoscroll
font size
0
reset
guitar tuner
Autoscroll
slow
fast
+/-
esc
set tempo
stop
Help us to improve Ultimate-Guitar.com Take our survey!
×
Author
+++++++++++++++++++++++++++++++++++++++++++++++++++++++++++++++++++++++++++++++
Early Sunsets Over Monroeville - My Chemical Romance
+++++++++++++++++++++++++++++++++++++++++++++++++++++++++++++++++++++++++++++++

Artist	My Chemical Romance
Song	Early Sunsets Over Monroeville
Album	I Brought You My Bullets, You Brought Me Your Love

standard tuning

tabbed by TheBigLebowski (philmccracken7@yahoo.com)

Intro
1|-------------------------------------------------|--------------------------|
2|-------------------------------------------------|--------------------------|
3|-5-5-55-5-7-2-2-22-2h4p2p0-----------------------|-5-5-55-5/75-2-2-22-2-4---|
4|---------------------------3-3-33-3-4-5-5-55-3-3-|--------------------------|
Cont.
1|---------------------|
2|---------------------|
3|---------------------|
4|-3-3-33-3-4-5-5-55-5-|

Verse						4x
1|-------------------------------------------------|
2|-------------------------------------------------|
3|-5-5-55-5-7-2-2-22-2h4p2p0-----------------------|
4|---------------------------3-3-33-3-4-5-5-55-3-3-|

CHorus
1|-------------------------------------------------------------------------|
2|-------------------------------------------------------------------------|
3|-2222-2222-------------------------------2222-2222-----------------------|
4|-----------2222-2222-3333-3333-2222-0000-----------2222-2222-3333-3333-5-|

Verse	4x

2nd CHorus
1|---------------------------------------------------------------------------------|
2|---------------------------------------------------------------------------------|
3|-2222-2222-------------------------------2222-2222-------------------------------|
4|-----------2222-2222-3333-3333-2222-0000-----------2222-2222-3333-3333-5555-5555-|
Cont.
1|-----------------------------------------------------------------------|
2|-----------------------------------------------------------------------|
3|-2222-2222-------------------------------2222-2222---------------------|
4|-----------2222-2222-3333-3333-2222-0000-----------2222-2222-3333-3333-|
Then:	   4x
1|-----------|
2|-----------|
3|-----------|
4|-5555-5555-|

Outro
1|---------------------------------------------------------------------------------|
2|---------------------------------------------------------------------------------|
3|-2222-2222-2222-2222-------------------------------------------------------------|
4|---------------------2222-2222-2222-2222-5555-5555-5555-5555-2222-2222-2222-2222-|
Cont.
1|-----------------------------------------------------------------------------------|
2|-----------------------------------------------------------------------------------|
3|------------------------------------10-9-------------------5/754-------------------|
4|-3333-3333-3333-3333-5555-5555-5555------10-2222-2222-2222---------3333-3333-3333--|
Cont.
1|--------------------------------------------------------------------------------|
2|-----------------------------------4~-------------------------------------------|
3|--------------------------2222-222-2~-222-0000---------------/7-55-44-----------|
4|-3333-5555-5555-5555-5555----------------------2222-2222-2222---------5555-5555-|
Cont.
1|------------------------------------------------------------------------|
2|------------------------------------------------------------------------|
3|------------------------------------------------------------------------|
4|-5555-5555-2222-2222-2222-2-02-3333-333-5/77-5/77-5-5555-5555-5555-5555-|
Cont.
1|------------------------------------------------------------------------------|
2|----------------555----------------5555---------------------------------------|
3|-2222-2222-2222---------------5555----------------5-7-5-10-9-7----------------|
4|--------------------3333-3333-----------5555-5555--------------2222-2222/5555-|
Cont.
1|---------------------------------------------------------------------------|
2|---------------------------------------------------------------------------|
3|-/9999-----------------------------------------5-7-9-10-9-7----------------|
4|-------3333-3333-0/2/3-0/2/3-0-2/333-5555-5555--------------2222-2222-2222-|
Cont.
1|------------------------------------------------------------------------------|
2|--------------------------------------------------------------------5555-5555-|
3|---------------------------------------------------------------/754-----------|
4|-2222-3333-3333-3333-3333-5555-5555-5555-5555-2222-2222-02-2222---------------|
Cont.
1|----------------------------------------------------------------------------|
2|-5555-5555-7777-7777-7777-7777-4444-4444-4444-4422-5555-5555-5555/7777-9999-|
3|----------------------------------------------------------------------------|
4|----------------------------------------------------------------------------|
Cont.
1|-----------------------------------------------------------------------------|
2|-9999-12121212-1111111-5555-5555-5555-444------------------------------------|
3|-----------------------------------------5/9999-9999-9999-975----------------|
4|--------------------------------------------------------------5555-5555-5555-|
Cont.
1|---------------------------------------------------------------------------------|
2|---------------------------------------------------------------------------------|
3|---------------------------------------------------------------------------------|
4|-5555-2222-2222-2222-2222-3333-3333-3333-3333-5555-5555-5555-5555-7777-7777-7777-|
Cont.
1|----------------------------------------------------------------------------|
2|-----------5555-5555-5555-5555-7777-7777-7777-7777-4444-4444-4444-4444-5555-|
3|----------------------------------------------------------------------------|
4|-7777-7777------------------------------------------------------------------|
Cont.
1|----------------------------------------------------------------------------|
2|-5555-5555-5555-7777-7777-7777-7777-9999-9999-9999-9999---------------------|
3|----------------------------------------------------------------------------|
4|--------------------------------------------------------2222-2222-2222-2222-|
Cont.
1|----------------|------|
2|----------------|------|
3|----------------|------|
4|-3333-3333-3333-|--3~--|

Please rate this tab, Thanks.

++++++++++++++++++++++++++++++++++++++++++++++++++++++++++++++++++++++++++++++++++
Suggest correction
What's this?
You can suggest a correction to this tab. Community and Mods will review your correction and vote to approve or reject it.
comments
We did not receive enough feedback on this tab! Please rate:
print report bad tab
1 2 3 4 5
guest
You may want to rate the tab now too:
select rating
Please do not post tabs as comments. Select "correction" instead!