Oops, an error
Loading. Please wait.

Early Sunsets Over Monroeville Tab

version 1
version 1

Whole song

Interactive

23,497 views 111 this week
9 commentsread comments
1 2 3 4 5
accurate
x 10
add to favorites
launch autoscroll
font size
0
reset
how to read this tab
guitar tuner
Autoscroll
slow
fast
+/-
esc
set tempo
stop
Help us to improve Ultimate-Guitar.com Take our survey!
×
Author
Difficulty
intermediate
Artist: My Chemical Romance
Album: I Brought You My Bullets, You Brought Me Your Love
Song: Early Sunsets Over Monroeville
Tabbed By: dan the sweet
E-mail: danthesnowyetti@yahoo.com
Tuning: Standard(EADGBe)



    D    Bm7    F#   Am7    A     G
e|--2-----2-----2-----0-----0-----3--|
B|--3-----3-----2-----0-----2-----0--|
G|--2-----4-----2-----2-----2-----0--|
D|--0-----4-----4-----2-----2-----0--|
A|--x-----2-----4-----0-----0-----2--|
E|--x-----x-----2-----x-----x-----3--|


[Verse 1]


Guitar 2:
e|----0--0--0-2-0--|
B|--3--3--3--------|
G|-----------------|
D|-----------------|
A|-----------------|
E|-----------------|
after playing that intro twice, play this.


Guitar 2:
e|--2-3-5---5-2-3-5---5-2-2-2-2-2-2-2-2-2-2-2-2-2-2-2-2-2-2-2-2-2-2-2-2-2-2-2-2-2-2-2-2|
B|-------3-3-------3-3-----------------------------------------------------------------|
G|-------------------------------------------------------------------------------------|
D|-------------------------------------------------------------------------------------|
A|-------------------------------------------------------------------------------------|
E|-------------------------------------------------------------------------------------|

e|----------------------------0-2-0|
B|-2-3-3-3-3-2-3-3-3-3-2-3-3-3-----|
G|---------------------------------|
D|---------------------------------|
A|---------------------------------|
E|---------------------------------|

(Guitar 2 continued)
e|-----5----5----5---5-7-5-1-5-1-3|
B|--2-3--2-3--2-3-2-3-------------|
G|--------------------------------|
D|--------------------------------|
A|--------------------------------|
E|--------------------------------|


[Verse 2]

Guitar 2:
e|---5-2-3-5-----5-2-2-2-2-2-2-2-2-2-2-2-2-2-2-2-2-2-2-2-2-2-2-2-2-2-|
B|-3---------3-3-----------------------------------------------------|
G|-------------------------------------------------------------------|
D|-------------------------------------------------------------------|
A|-------------------------------------------------------------------|
E|-------------------------------------------------------------------|

e|2-2-2-2-2-2-2-----------------------------0-2-0--|
B|--------------2-3-3-3-3-2-3-3-3-3-2-3-3-3--------|
G|-------------------------------------------------|
D|-------------------------------------------------|
A|-------------------------------------------------|
E|-------------------------------------------------|

(Guitar 2 continued)
e|-----------------------------0-2-0----------------------------0-2--------5----5----5---5---5---|
B|--2-3-3-3-3-2-3-3-3-3-2-3-3-3------2-3-3-3-3-2-3-3-3-3-2-3-3-3----5\2-2-3--2-3--2-3-2-3-2-3-3--|
G|-----------------------------------------------------------------------------------------------|
D|-----------------------------------------------------------------------------------------------|
A|-----------------------------------------------------------------------------------------------|
E|-----------------------------------------------------------------------------------------------|

(Guitar 2 still continued)
e|-----5----5----5---5-7-5-3-2-3-2-----|
B|--2-3--2-3--2-3-2-3-------------3h5--|
G|-------------------------------------|
D|-------------------------------------|
A|-------------------------------------|
E|-------------------------------------|


[Bridge/Ending]

e|-------0-----0-2-3-2-0--|
B|--0-2-3-3-2-3-----------|
G|------------------------|
D|------------------------|
A|------------------------|
E|------------------------|


[Bridge/Ending Part 2]

when he first says "there's no room in this hell" then you switch to this.

e|---------------------------------------------------------------------------------------------|
B|--2-3-3-2-3-3-2-3-3-2-3-3-2-3-3-2-3-3-2-3-3-2-3-3-2-3-3-2-3-3-2-3-3-2-3-3-2-3-3-2-3-3-2-3-3--|
G|---------------------------------------------------------------------------------------------|
D|---------------------------------------------------------------------------------------------|
A|---------------------------------------------------------------------------------------------|
E|---------------------------------------------------------------------------------------------|

do that once and then this untill he stops saying "there's no room in the next"
for the last time.

e|--------------------------------------------------|
B|--3--3-2-0--0-2-3--3-2-0--0-2-3--3-5-0--0-5-2-3---|
G|--------------------------------------------------|
D|--------------------------------------------------|
A|--------------------------------------------------|
E|--------------------------------------------------|

then finish with this once.

e|-------0-----0-2-3-2-0-------|
B|--0-2-3-3-2-3---------0-2/3--|
G|-----------------------------|
D|-----------------------------|
A|-----------------------------|
E|-----------------------------|


Lyrics/Chords


[Verse]

D                Bm7   F#       Am7 A D               Bm7       F#     Am7 A
Late  dawns  and  early  sunsets,     just  like  my  favorite  scenes.
D              Bm7         F#         Am7 A
Then  holding  hands  and  life  was  perfect.  
D               Bm7      F#     Am7 A
just  like  up  on  the  screen.
D               Bm7           F#      Am7 A
And  the  whole  time  while  always  giving.
D              Bm7     F#         Am7 A
Counting  your  face  among  the  living.


[Verse 2]

D             Bm7  F#     Am7 A D            Bm7      F#        Am7 A    
Up  and  down  escalaters,      pennies  and  colder  fountains. 
D   Bm7         F#                  Am7 A
Elavaters  and  half  priced  sales.
D               Bm7          F#        Am7 A
Trapped  in  by  all  these  mountains.
D       Bm7         F#      Am7   A
Running  away  and  hiding  with  you.
D        Bm7               F#       Am7 A
I  never  thought  they'd  get  me  here.
D                 Bm7             F#        Am7  A 
Not  knowing  you  changed  from  just  one  bite.
D               Bm7        F#       Am7    A               Bm7
I  fought  them  all  off  just  to  hold  you  close  and  tight.
                   G                           A
But  does  anyone  notice,  But  does  anyone  care.
                      F#                              G
And  if  i  had  the  guts,  to  put  this  to  your  head.
                     Bm7                          G
But  would  anything  matter,  if  your  already  dead.
                    A                                         F#
And  should  i  be  shocked  now,  by  the  last  thing  you  said.
                       G                                 Bm7
Before  i  pull  this  trigger,  your  eyes  vacant  and  staind.
                   G                           A
But  does  anyone  notice,  but  does  anyone  care.
                      F#                   G           
And  if  i  had  the  guts,  to  put  this  through  your  head.
                     Bm7                  G
And  would  anything  matter,  if  your  already  dead.
                       A                                    F#
And  now  should  i be shocked,  by  the  last  thing  you  said.
                       G                                 Bm7
Before  i  pull  this  trigger,  your  eyes  vacant  and  staind.
                      G                                     A
And  in  saying  you  loved  me,  made  things  harder  at  best.
                             F#                        G
And  these  words  changing  nothing,  as  your  body  remains.
                           Bm7                                        G
And  there's  no  room  in  this  hell,  there's  no  room  in  the  next.
                    A                                 F#
And  our  memories  defeat  us,  and  i'll  end  this  direst.
                   G                        Bm7
But  does  anyone  notice,  but  does  anyone  care.
                       G                   A
When  if  i  had  the  guts,  to  put  this  to  your  head.
                     F#                    G
But  does  anything  matter,  if  your  already  dead.
                   Bm7                                          G
And  should  i  be  shocked  now,  by  the  last  thing  your  said.
                       A                                 F#
Before  i  pull  this  trigger,  your  eyes  vacant  and  staind.
                      G                                    Bm7
And  in  saying  you  loved  me,  made  things  harder  at  best.
                           G                           A
And  these  words  changing  nothing,  as  your  body  remains.
                            F#                                       G
And  there's  no  room  in  this  hell,  there's  no  room  in  the  next.
                  Bm7
But  does  anyone  notice,  there's  corps  in  this  bed.


well that's it.  let the ending "Bm7" ring till the end.  it may be a little confusing,
esspecially with the second guitar, but just play along with the song and you shoul
get it right.  email me if there are any mess-ups, i don't think there are, i'm pretty
sure about the whole song. anyway, have fun with it and leave me some comments.
dan the sweet!


************************************

| x  string not played
| h  Hammer-on
| /  Slide up
| \  Slide down

************************************
Suggest correction
comments
print report bad tab
9 comments total. Showing first comments.
0 reply
MCRrocks 35 wrote on January 20 2006, 05:20 am

okay, the chords are great, but the rhthym is ....... i don't know. i know it though, would you like me to help you with it? P.M me MCRrocks.

0 reply
Annie93 10 wrote on May 21 2006, 10:12 am

isnt Am7 something like -0
-1
-0
-0
-2
-0 ?

mmhmm it is. anyway, real good tab, its fun to play

0 reply
punkrawkdude 20 wrote on August 3 2006, 08:32 pm

Very good tab, I didn't really look at the 2nd guitar yet, but the chords sound right on. Great song, good job.

guest
You may want to rate the tab now too:
select rating
Wanna post a correction for this tab? Suggest correction