Oops, an error
Loading. Please wait.

Early Sunsets Over Monroeville Tab

version 2
version 2

Whole song

Interactive

13,887 views 12 this week
no commentswrite comment
1 2 3 4 5
x 13
add to favorites
×
Save as Personal and add changes to this tab that will be seen only by you. Learn more ›
launch autoscroll
font size
0
reset
how to read this tab
guitar tuner
Autoscroll
slow
fast
+/-
esc
set tempo
stop
Author
Difficulty
intermediate
Standard tuning

e|-----------------------|
B|-----------------------|
G|-9-7---9-7--9--9/11--9-|
D|-----------------------|
A|-----------------------|
E|-----------------------|

e|--------------------------|
B|--------------------------|
G|-7---9-7---9-7--9--9/11-9-|
D|--------------------------|
A|--------------------------|
E|--------------------------|

e|---------------------|
B|---------------------|
G|-11-12-14-7-----7-14-|
D|---------------------| (x2)
A|---------------------|
E|---------------------|

e|-------------------------------------------------|
B|-15-15-15-15-15-15-15-15-14-14-14-14-14-14-14-14-|
G|-11-11-11-11-11-11-11-11-11-11-11-11-11-11-11-11-|
D|-------------------------------------------------|    
A|-------------------------------------------------|
E|-------------------------------------------------|

e|-------------------------------------------------|
B|-12-12-12-12-12-12-12-12-12-12-12-12-12-12-12-12-|
G|-11-11-11-11-11-11-11-11-11-11-11-11-11-11-11-11-|
D|-------------------------------------------------|    
A|-------------------------------------------------|
E|-------------------------------------------------|

e|-------------------------------------------------|
B|-15-15-15-15-15-15-15-15-14-14-14-14-15-15-15-15-|
G|-11-11-11-11-11-11-11-11-11-11-11-11-11-11-11-11-|
D|-------------------------------------------------|    
A|-------------------------------------------------|
E|-------------------------------------------------|

e|-------------------------------------------------|
B|-12-12-12-12-12-12-12-12-12-12-12-12-12-12-12-12-|
G|-11-11-11-11-11-11-11-11-11-11-11-11-11-11-11-11-|
D|-------------------------------------------------|    
A|-------------------------------------------------|
E|-------------------------------------------------|

e|---------------------------------------|
B|---------------------------------------|
G|-6-77-6-77-6-77-6-77-6-77-6-7-9-9/11-9-|
D|---------------------------------------|
A|---------------------------------------|
E|---------------------------------------|

e|-----5---------5---------5----5---------------|
B|----------------------------------------------|
G|-6-7---7---6-7---7---6-7---6-7----<12>----<7>-|
D|------------------------------<7>-----<16>----|
A|----------------------------------------------|
E|----------------------------------------------|

e|---------------------------------|
B|---------------------------------|
G|--7-14-------11-12-14---7--7-14--|
D|---------------------------------|
A|---------------------------------|
E|---------------------------------|

e|-------------------------------------------------|
B|-15-15-15-15-15-15-15-15-14-14-14-14-14-14-14-14-|
G|-11-11-11-11-11-11-11-11-11-11-11-11-11-11-11-11-|
D|-------------------------------------------------|    
A|-------------------------------------------------|
E|-------------------------------------------------|

e|-------------------------------------------------|
B|-12-12-12-12-12-12-12-12-12-12-12-12-12-12-12-12-|
G|-11-11-11-11-11-11-11-11-11-11-11-11-11-11-11-11-|
D|-------------------------------------------------|    
A|-------------------------------------------------|
E|-------------------------------------------------|

e|-------------------------------------------------|
B|-15-15-15-15-15-15-15-15-14-14-14-14-15-15-15-15-|
G|-11-11-11-11-11-11-11-11-11-11-11-11-11-11-11-11-|
D|-------------------------------------------------|    
A|-------------------------------------------------|
E|-------------------------------------------------|


e|-------------------------------------------------|
B|-12-12-12-12-12-12-12-12-12-12-12-12-12-12-12-12-|
G|-11-11-11-11-11-11-11-11-11-11-11-11-11-11-11-11-|
D|-------------------------------------------------|    
A|-------------------------------------------------|
E|-------------------------------------------------|

e|---------------------------------------|
B|---------------------------------------|
G|-6-77-6-77-6-77-6-77-6-77-6-7-9-9/11-9-|
D|---------------------------------------| (x2)
A|---------------------------------------|
E|---------------------------------------|

e|-----5----------5-----------5----5------5---|
B|--------------------------------------------|
G|-6-7---7-----6-7---7----6-7---6-7---6-7---7-|
D|--------------------------------------------|
A|--------------------------------------------|
E|--------------------------------------------|

e|-----5-----------5------------5------5--5/7--5--2-3-2-0----|
B|-----------------------------------------------------------|
G|-6-7---7-----6-7---7-----6-7----6-7------------------------|
D|-----------------------------------------------------------|
A|-----------------------------------------------------------|
E|-----------------------------------------------------------|

e|---------------------------------|
B|----------------5-7-8-7-5--------|
G|-4-6-7-9-7-6--7------------------|
D|---------------------------------| (x26)
A|---------------------------------|
E|---------------------------------|

 [Outro Pattern]
e|----------------------|
B|----------------------|
G|-4-6-77-6-7-6---------|
D|----------------------|  (x2)
A|----------------------|
E|----------------------|

[Ending]
e|---------|
B|---------|
G|-4-6-7/-9|
D|---------|
A|---------|
E|---------|


************************************

| /  Slide up

************************************
Suggest correction
comments
print report bad tab
guest
You may want to rate the tab now too:
select rating
Wanna post a correction for this tab? Suggest correction