Oops, an error
Loading. Please wait.

Early Sunsets Over Monroeville Tab

version 4
version 4

Whole song

Interactive

3,743 views 3 this week
5 commentsread comments
1 2 3 4 5
accurate
x 4
add to favorites
launch autoscroll
font size
0
reset
how to read this tab
guitar tuner
Tab Pro tools
  • play this tab
  • loop segment
  • change instrument
  • show fretboard
  • metronome
×
Best way to learn
"Early Sunsets Over Monroeville"
Autoscroll
slow
fast
+/-
esc
set tempo
stop
Contributor
Difficulty
intermediate
Artist : My Chemical Romance
Song : Early Sunsets Over Monroeville
Album : I Brought You My Bullets, You Brought Me Your Love
Tabbed by : Toshio(toshio89@gmail.com)^_^

Tuning = Standard
bl - bend lightly
~  - hold note
h  - hammer on
p  - pull off
/  - slide
(#)- Harmonics

Intro/Verse
e:|------------------------------------|
B:|------------------------------------|
G:|------------------------------------| X 2
D:|-12~--14-12~-14-12~-14p16~14~-------|
A:|------------------------------------|
E:|------------------------------------|

e:|------------------------------------|
B:|------------------------------------|
G:|-------14--------14-----------------| X 2
D:|-16-17---12~--12--------------------|
A:|------------------------------------|
E:|------------------------------------|

e:|------------------------------------|
B:|------------------------------------|
G:|--16x24-----------------------------| X 2 (i do 12 instead of 16 the second time)
D:|------------------------------------|
A:|------------------------------------|
E:|------------------------------------|

Other Part
e:|------------------------------------|
B:|------------------------------------|
G:|------------------------------------| 
D:|-11-12b12(bl)-x5--11-12-14/16-14----|
A:|------------------------------------|
E:|------------------------------------|

e:|--------------|------------------------|
B:|--------------|-----------(7)----------|(what I do, not sure
G:|------14------|---14----------(7)------|   listen for timing )
D:|-11h12--12-x3-|-12-----(7)-------------|
A:|--------------|------------------------|
E:|--------------|----HARMONICS!----------|

Intro/Verse
e:|------------------------------------|
B:|------------------------------------|
G:|-------14--------14-----------------| X 2
D:|-16-17---12~--12--------------------| (listen for timing)
A:|------------------------------------|
E:|------------------------------------|

e:|------------------------------------|
B:|------------------------------------|
G:|--16x24-----------------------------| X 2 (i do 12 instead of 16 the second time)
D:|------------------------------------|
A:|------------------------------------|
E:|------------------------------------|

Other Part
e:|------------------------------------|
B:|------------------------------------|
G:|------------------------------------| X 2 
D:|-11-12b12(bl)-x5--11-12-14/16-14----|
A:|------------------------------------|
E:|------------------------------------|

e:|---------------------------------------------------------------|
B:|---------------------------------------------------------------|
G:|------14----X2------14---14--14/16-14-12-11-12-11-9-11-9-7-9-7-|
D:|-11h12--12-----11h12--12---12----------------------------------|
A:|---------------------------------------------------------------|
E:|---------------------------------------------------------------|

Long Chorus/Outro part
e:|---------------------------------------------|
B:|---------------------------------------------|
G:|----------------------7-9-11-11/12-11-9------| MANY TIMES!!
D:|-9-11-12-12/14-12-11-------------------------|
A:|---------------------------------------------|
E:|---------------------------------------------|

That's all I know so far. The ending I just play what I think I'm hearing
but I change every time hehe. Happy picking.
Great song by a great band!! One of my favourites on this album.

Cheers, Toshio
comments
print report bad tab
5 comments total. Showing first comments.
0 reply
MCRrocks wrote on November 21 2005, 08:06 am

what about the rhythm? :(

-1 reply
mcr_01_fan wrote on November 23 2005, 01:40 pm

Good tab, but there is no rhythm so i only give it four stars ****

0 reply
music_freak392 wrote on September 14 2006, 10:33 pm

this is a pretty good tab....a few parts can be slightly tweaked... but over all really awesome
thanks!

I want to post or [tab]
guest
You may want to rate the tab now too:
select rating
Please do not post tabs as comments. Select "correction" instead!