Oops, an error
Loading. Please wait.

End Bass Tab

version 2
version 2

Whole song

Interactive

3,351 views 6 this week
2 commentsread comments
1 2 3 4 5
x 9
add to favorites
launch autoscroll
font size
0
reset
guitar tuner
Autoscroll
slow
fast
+/-
esc
set tempo
stop
Help us to improve Ultimate-Guitar.com Take our survey!
×
Author
Difficulty
novice
SONG:  The End.
BAND:  My Chemical Romance
ALBUM:  The Black Parade

Verse 1:
G|--------|
D|--rest--|
A|--------|
E|--------|

Chorus:
G|---------------------------------------------------------|
D|---------------------------------------------------------|
A|----------0-2-0---------------4--4--4--4-5-4-3--3--5--3--|
E|--3--3--3-------3-0--0--2--0-----------------------------|

Bridge:
G|--------|
D|--rest--|
A|--------|
E|--------|

Verse 2:
G|--------|
D|--rest--|
A|--------|
E|--------|

Chorus:
G|---------------------------------------------------------|
D|---------------------------------------------------------|
A|----------0-2-0---------------4--4--4--4-5-4-3--3--5--3--|
E|--3--3--3-------3-0--0--2--0-----------------------------|

G|----------------------------------------------------------------------|
D|----------------------------------------------------------------------|
A|----------0-2-0---------------4--4--4--4-5-4-3-3-3-5-5-5-6-6-6-8-8-8--|
E|--3--3--3-------3-0--0--2--0------------------------------------------|
Suggest correction
comments
print report bad tab
2 comments total.
0 reply
LoveDoc 30 Nov 16, 2007 01:07 PM

thanks this realy helped and its pretty easy too

0 reply
solidskateboard 82 Mar 29, 2008 11:06 PM

sweetness

guest
You may want to rate the tab now too:
select rating
Wanna post a correction for this tab? Suggest correction