Oops, an error
Loading. Please wait.

End Chords

version 3
version 3

Whole song

Interactive

6,203 views 15 this week
no commentswrite comment
1 2 3 4 5
x 5
add to favorites
launch autoscroll
font size
0
reset
transpose
0
reset
simplify chords
display chords
guitar tuner
Autoscroll
slow
fast
+/-
esc
set tempo
stop
Help us to improve Ultimate-Guitar.com Take our survey!
×
[Intro]
G (Palm muted)

[Verse]
    G        
Now come on come all to this tragic affair; 
Em
wipe off that make-up for sin is to spare
   C7
so throw on the black dress mix in with the lot;
          Em7                      Em
you might wake up and notice youre someone your not
       G          
If you look in the mirror and dont like what you see 
        Em 
you can find at first hand what its like to be me
   C7         
so gather round piggies and kiss this goodbye
     Em                         G               Em7
i'll encourage your smile, i'll expect you wont cry

[Bridge]
E|-3-3-3-5-7-5-3------------------------------------------|
B|-0-------------5-5-7-5-2-2-2-2-4-2----------------------|
G|-0---------------------------------5-5-7-5-4-0----------|
D|-0------------------------------------------------------|
A|-2------------------------------------------------------|
E|-3------------------------------------------------------|

[Verse 2]
Another contrution my funeral jag, 
is my resignition my service's radd
you've got front row seats to the penatons ball;
when i grow up i want to be nothin' at all.

[Bridge]
E|-3-3-3-5-7-5-3------------------------------------------|
B|-0-------------5-5-7-5-2-2-2-2-4-2----------------------|
G|-0---------------------------------5-5-7-5-4-0----------|
D|-0------------------------------------------------------|
A|-2------------------------------------------------------|
E|-3------------------------------------------------------|
Suggest correction
comments
print report bad tab
guest
You may want to rate the tab now too:
select rating
Wanna post a correction for this tab? Suggest correction