Oops, an error
Loading. Please wait.

End Tab

version 3
version 3

Interactive

39,790 views 36 this week
18 commentsread comments
1 2 3 4 5
x 29
add to favorites
launch autoscroll
font size
0
reset
how to read this tab
guitar tuner
Autoscroll
slow
fast
+/-
esc
set tempo
stop
Help us to improve Ultimate-Guitar.com Take our survey!
×
Author
MCR
The End

Figure order out on your own

(In 3/4 time)

Intro

 Acoustic
|-x---x-x-x-x-x---x-x-x-x-|
|-x---x-x-x-x-x---x-x-x-x-|
|-x---x-x-x-x-x---x-x-x-x-|
|-x---x-x-x-x-x---x-x-x-x-|
|-x---x-x-x-x-x---x-x-x-x-|
|-x---x-x-x-x-x---x-x-x-x-|

Verse

|-3---3-3-3-3-3---3-3-3-3-|-3---3-3-3-3-3-----------|
|-3---3-3-3-3-3---3-3-3-3-|-3---3-3-3-3-3-----------|
|-0---0-0-0-0-0---0-0-0-0-|-0---0-0-0-0-0-----------|
|-0---0-0-0-0-0---0-0-0-0-|-0---0-0-0-0-0-----------|
|-2---2-2-2-2-2---2-2-2-2-|-2---2-2-2-2-2-----------|
|-3---3-3-3-3-3---3-3-3-3-|-3---3-3-3-3-3---3---2---|

|-0---0-0-0-0-0---0-0-0-0-|
|-0---0-0-0-0-0---0-0-0-0-|
|-0---0-0-0-0-0---0-0-0-0-|x2
|-2---2-2-2-2-2---2-2-2-2-|
|-2---2-2-2-2-2---2-2-2-2-|
|-0---0-0-0-0-0---0-0-0-0-|

|-0---0-0-0-0-0---0-0-0-0-|
|-0---0-0-0-0-0---0-0-0-0-|
|-6---6-6-6-6-6---6-6-6-6-|x2
|-6---6-6-6-6-6---6-6-6-6-|
|-4---4-4-4-4-4---4-4-4-4-|
|-------------------------|

|-0---0-0-0-0-0---0-0-0-0-|
|-0---0-0-0-0-0---0-0-0-0-|
|-5---5-5-5-5-5---5-5-5-5-|x2
|-5---5-5-5-5-5---5-5-5-5-|
|-3---3-3-3-3-3---3-3-3-3-|
|-------------------------|

Chorus

 Gtr.1 (elec.)
|---------------------------|------------------------------|
|---------------------------|-----------12-----------------|
|-12-----------12-----------|-12---14--------14-------12---|
|---------------------------|------------------------------|
|---------------------------|------------------------------|
|---------------------------|------------------------------|
|
|Gtr.2 (elec.)
|---------------------------|------------------------------|
|---------------------------|------------------------------|
|---------------------------|------------------------------|
|---------------------------|------------------------------|
|---------------------------|------------------------------|
|-3------------3------------|-3----5----7----5--------3----|

|-------------------------|--------------------------|
|-------------------------|--------------------------|
|-9-----------9-----------|-11-----------9-----------|
|-------------------------|--------------------------|
|-------------------------|--------------------------|
|-------------------------|--------------------------|
|
|-------------------------|--------------------------|
|-------------------------|--------------------------|
|-------------------------|--------------------------|
|-------------------------|--------------------------|
|-------------------------|--------------------------|
|-0-----------0-----------|-2------------0-----------|

|---------------------------|-----------------------------|
|-14-----------14-----------|-14-----------14---16---14---|
|---------------------------|-----------------------------|
|---------------------------|-----------------------------|
|---------------------------|-----------------------------|
|---------------------------|-----------------------------|
|
|---------------------------|------------------------------|
|---------------------------|------------------------------|
|---------------------------|------------------------------|
|---------------------------|------------------------------|
|-4------------4------------|-4------------4----6----4-----|
|---------------------------|------------------------------|

|---------------------------|---------------------------|
|-13-----------13-----------|-15-----------13-----------|
|---------------------------|---------------------------|
|---------------------------|---------------------------|
|---------------------------|---------------------------|
|---------------------------|---------------------------|
|
|---------------------------|---------------------------|
|---------------------------|---------------------------|
|---------------------------|---------------------------|
|---------------------------|---------------------------|
|-3------------3------------|-5------------3------------|
|---------------------------|---------------------------|

Bridge

 Acoustic
|-------------------------|-------------------------|
|-------------------------|-------------------------|
|-------------------------|-------------------------|
|-0-----------------------|---------------------0---|
|-2-----------------------|---------------------1---|
|-3-----------------------|---------------------2---|

|-------------------------|-------------------------|
|-------------------------|-------------------------|
|-------------------------|-------------------------|
|-0-----------------------|-------------------------|
|-2-----------------------|-------------------------|
|-3-----------------------|-------------------------|

Verse
(only on second)

 Gtr.3 (clean elec.) w/ chorus
|-------------------------|--------------------------|
|-------------------------|--------------------------|
|-------------------------|--------------------------|
|---------0---------------|--------------------------|
|-----2-------------------|--------------------------|
|-3-----------------------|--------------------------|

|-------------------------|--------------------------|
|-------------------------|--------------------------|
|-------------------------|--------------------------|
|---------2---------------|--------------------------|
|-----2-------------------|--------------------------|
|-0-----------------------|--------------------------|

|-------------------------|--------------------------|
|-------------------------|--------------------------|
|---------6---------------|--------------------------|
|-----6-------------------|--------------------------|
|-4-----------------------|--------------------------|
|-------------------------|--------------------------|

|-------------------------|--------------------------|
|-------------------------|--------------------------|
|---------2---------------|--------------------------|
|-----2-------------------|--------------------------|
|-3-----------------------|--------------------------|
|-------------------------|--------------------------|

Outro on last chorus

 Gtr.1
|-------------------------------|-------------------------------|
|-13---13---13---15---15---15---|-16---16---16---18---18---18---|
|-------------------------------|-------------------------------|
|-------------------------------|-------------------------------|
|-------------------------------|-------------------------------|
|-------------------------------|-------------------------------|
|
|Gtr.2
|-------------------------------|-------------------------------|
|-------------------------------|-------------------------------|
|-------------------------------|-------------------------------|
|-------------------------------|-------------------------------|
|-3----3----3----5----5----5----|-6----6----6----8----8----8----|
|-------------------------------|-------------------------------|

end.
Suggest correction
comments
print report bad tab
18 comments total. Showing first comments. show 1 bad comment
-2 reply
thegreatindoors 41 Oct 24, 2006 07:53 PM

isn't this in 12/8 time? Hmm....

+4 reply
tabmeister 61 Oct 27, 2006 07:54 AM

um...this is MUCH better than the other versions. At least this one actually has the right chords. The only mistake i could find is that in the chorus, it should be:

|---------------------------|-----------------------------|
|-14-----------14-----------|-14-----------14---15---14---|
|---------------------------|-----------------------------|
|---------------------------|-----------------------------|
|---------------------------|-----------------------------|
|---------------------------|-----------------------------|
|
|---------------------------|------------------------------|
|---------------------------|------------------------------|
|---------------------------|------------------------------|
|---------------------------|------------------------------|
|-4------------4------------|-4------------4----5----4-----|
|---------------------------|------------------------------|

instead of

|---------------------------|-----------------------------|
|-14-----------14-----------|-14-----------14---16---14---|
|---------------------------|-----------------------------|
|---------------------------|-----------------------------|
|---------------------------|-----------------------------|
|---------------------------|-----------------------------|
|
|---------------------------|------------------------------|
|---------------------------|------------------------------|
|---------------------------|------------------------------|
|---------------------------|------------------------------|
|-4------------4------------|-4------------4----6----4-----|
|---------------------------|------------------------------|

guest
You may want to rate the tab now too:
select rating
Wanna post a correction for this tab? Suggest correction