Oops, an error
Loading. Please wait.

End Tab

version 4
version 4

Interactive

1,165 views 1 this week
7 commentsread comments
1 2 3 4 5
accurate
x 5
add to favorites
launch autoscroll
font size
0
reset
how to read this tab
guitar tuner
Tab Pro tools
  • play this tab
  • loop segment
  • change instrument
  • show fretboard
  • metronome
×
Best way to learn
"End"
Autoscroll
slow
fast
+/-
esc
set tempo
stop
Contributor
My Chemical Romance
The End
The Black Parade

Ok so this is my first tab so i hope you guys like it...


Intro/Verse 1: (repeat x2 except for last part)

|-------------------------------------------------|
|-----3---------3---------------3--------3--------|
|-----4---------4---------------4--------4--------|
|-----5---------5---------------5--------5--------|
|-----5---------5---------------5--------5--------|
|-------------------------------------------3-2-0-|

Now come one, come all, to this tragic affair

|------------------------------------------|
|------------------------------------------|
|----0-----0---0--------0---0-------0--0---|
|----2-----2---2--------2---2-------2--2---|
|----2-----2---2--------2---2-------2--2---|
|----0-----0---0--------0---0-------0--0---|

 Wipe off that make up, for sin is to spare

|------------------------------------------------|
|------2-----------2--------------2-----------2--|
|0-----3-----------3--------------3-----------3--|
|2-----4-----------4--------------4-----------4--|
|2-----4-----------4--------------4-----------4--|
|0-----------------------------------------------|

 So throw on the black dress mix in with the lot

|-----------------------------------------------------|
|-2---------1------------1--------------1----------1--|
|-3---------2------------2--------------2----------2--|
|-4---------3------------3--------------3----------3--|
|-4---------3------------3--------------3----------3--|
|-----------------------------------------------------|

 You Might wake up and notice you're someone your not


|-------------------------------------------------------------------|
|-------------------------------------------------------------------|
|-------------------------------------------------------------------|
|--5--5--5-7-9-7--5-2--2--4--2---11--11--11/13---10--10--10--10/12--|
|--5--5--5-7-9-7--5-2--2--4--2---11--11--11/13---10--10--10--10/12--|
|--3--3--3-5-7-5--3-0--0--2--0---9---9---9-/11---8---8---8---8-/10--|



Verse 2:

|--------------------------------------------------------|
|--------------3---------0---------------2--------1------|
|-----------4---------0---------------3--------2---------|
|--------5---------2---------------4--------3------------|
|-----5---------2---------------4--------3---------------|
|--------------------------------------------------------|


Chorus: (continue to outro)

|-------------------------------------------------------------------|
|-------------------------------------------------------------------|
|-------------------------------------------------------------------|
|--5--5--5-7-9-7--5-2--2--4--2---11--11--11/13---10--10--10--10/12--|
|--5--5--5-7-9-7--5-2--2--4--2---11--11--11/13---10--10--10--10/12--|
|--3--3--3-5-7-5--3-0--0--2--0---9---9---9-/11---8---8---8---8-/10--|


Outro:

|---------------------------------------------|
|---------------------------------------------|
|---------------------------------------------|
|---------------------------------------------|
|-1010101012-12-12-12-14-14-14-14-15-15-15-15-|
|-8-8-8-8-10-10-10-10-12-12-12-12-13-13-13-13-|
comments
print report bad tab
7 comments total. Showing first comments.
-1 reply
son_of_page wrote on November 7 2006, 03:34 am

Sorry man, but its wrong.
Through out the verses Ray uses simple chords
|-3---------0---2-----?-|
|-3---------0---2-----?-|
|-0---------0---3-----?-| Strum each chord
|-0---------2---2-----?-| Not sure about last chord
|-2---------2---4-----?-|
|-3-----3-2-0---2-----?-|

enjoy

-1 reply
Jord1235 wrote on November 9 2006, 02:09 am

^^^try C#m^^^

-1 reply
MCRrockerrr wrote on November 30 2006, 05:54 pm

i dont think it sounds anything like the song!

I want to post or [tab]
guest
You may want to rate the tab now too:
select rating
Please do not post tabs as comments. Select "correction" instead!