Oops, an error
Loading. Please wait.

End Tab

version 5
version 5

Interactive

2,194 views 9 this week
5 commentsread comments
1 2 3 4 5
accurate
x 7
add to favorites
launch autoscroll
font size
0
reset
how to read this tab
guitar tuner
Autoscroll
slow
fast
+/-
esc
set tempo
stop
Help us to improve Ultimate-Guitar.com Take our survey!
×
Author
Difficulty
novice
Song: The End.
Band: My Chemical Romance
Album: The Black Parade

Key:

x:- String Mute
^:- Bend
~:- Let Ring

Gtr I: Ray Toro: Standard Tuning (e,B,G,D,A,E)
Gtr II: Frank Iero: Standard Tuning (e,B.G,D,A,E)

Intro:

Gtr II

e:|--------------------------------|
B:|--------------------------------|
G:|-x-xxxxx-xxxxx-xxxxx-xxxxx-xxxx-|
D:|-x-xxxxx-xxxxx-xxxxx-xxxxx-xxxx-|
A:|-x-xxxxx-xxxxx-xxxxx-xxxxx-xxxx-|
E:|-x-xxxxx-xxxxx-xxxxx-xxxxx-xxxx-|

Verse I

Gtr II

e:|---------------------------------------------|
B:|---------------------------------------------|
G:|-4-44444-44444-4444-------0-00000-00000-0000-|
D:|-5-55555-55555-5555-------2-22222-22222-2222-|
A:|-5-55555-55555-5555-------2-22222-22222-2222-|
E:|-3-33333-33333-3333-3-2-0-0-00000-00000-0000-|

e:|----------------------------------------------|
B:|-5-55555-55555-5555-0-00000-0000-0-00000-0000-|
G:|-6-66666-66666-6666-2-22222-2222-2-22222-2222-|
D:|-6-66666-66666-6666-1-11111-1111-1-11111-1111-|
A:|-4-44444-44444-4444-3-33333-3333-3-33333-3333-|
E:|----------------------------------------------|

Chorus

Gtr I

e:|-----------------------------------------------------------|
B:|-----------------------------------------------------------|
G:|-----------------------------6--6--6--6-7-6-5--5--7--5-----|
D:|-5--5--5-7-9-7-5-2--2--4--2--x--x--x--x-x-x-x--x--x--x-----|
A:|-x--x--x-x-x-x-x-x--x--x--x--4--4--4--4-5-4-3--3--5--3-----|
E:|-3--3--3-5-7-5-3-0--0--2--0-----------------------------3~-|

Gtr II

e:|------------------------------------------------------------------|
B:|------------------------------------------------------------------|
G:|-12-12-12-14-16-14-12-9-9-11-9--18-18-18-18-19-18-17-17-19-17-12~-|
D:|--x--x--x--x--x--x--x-x-x--x-x---x--x--x--x--x--x--x--x--x--x--x--|
A:|-10-10-10-12-14-12-10-7-7--9-7--16-16-16-16-17-16-15-15-17-15-10~-|
E:|------------------------------------------------------------------|

Verse II

For this verse, Gtr II just repeats the last verse, Gtr I plays this:

[ For the notes before the line, pick the strings at the bottom pick 
up, the effect should sound right ]

e:|-----------------------------|-----------------|
B:|-----------------------------|-----------------|
G:|-------------------6~-----2~-|-2^3-2^3-2^3-2^3-|
D:|-----0~-----2~---6~-----1~---|-----------------|
A:|---2~-----2~---4~-----3~-----|-----------------|
E:|-3~-----0~-------------------|-----------------|

Repeat Chorus.

OUtro:

Gtr I

e:|----------------------------|
B:|----------------------------|
G:|-5-5-5-7-7-7-8-8-8-10-10-10-|
D:|-x-x-x-x-x-x-x-x-x--x--x--x-|
A:|-3-3-3-5-5-5-6-6-6--8--8--8-|
E:|----------------------------|

Gtr II

e:|-------------------------------------|
B:|-------------------------------------|
G:|-18-18-18-20-20-20-21-21-21-23-23-23-|
D:|--x--x--x--x--x--x--x--x--x--x--x--x-|
A:|-16-16-16-18-18-18-19-19-19-21-21-21-|
E:|-------------------------------------|
Suggest correction
comments
print report bad tab
5 comments total. Showing first comments.
0 reply
guitarhead93 71 wrote on January 2 2007, 09:10 pm

Nice tab man!
i just hope their next single is The End./Dead because of the final beep at "The End." and the starting one on "Dead"... It just sounds so great. Excelent job

0 reply
arlekin_emo 10 wrote on February 5 2007, 07:49 pm

exellent job man!! awesome

0 reply
mychemcraze 10 wrote on July 11 2007, 05:40 pm

this tab sucks!

guest
You may want to rate the tab now too:
select rating
Please do not post tabs as comments. Select "correction" instead!