Oops, an error
Loading. Please wait.

End Tab

version 6
version 6

Interactive

8,187 views 18 this week
3 commentsread comments
1 2 3 4 5
x 6
add to favorites
launch autoscroll
font size
0
reset
how to read this tab
guitar tuner
Autoscroll
slow
fast
+/-
esc
set tempo
stop
Help us to improve Ultimate-Guitar.com Take our survey!
×
Author
Tabbers playing skills
intermediate
The strumming pattern is easy so listen to the cd and you’ll work it out

~=let ring
X=mute

Intro
e--x-xxxx-x-xxxx--|
b--x-xxxx-x-xxxx--|
g--x-xxxx-x-xxxx--|
d--x-xxxx-x-xxxx--|
a--x-xxxx-x-xxxx--|
E--x-xxxx-x-xxxx--| X4

Verse
e--3-33333-33333-3333--------| e--0-00000-00000-00000------|
b--3-33333-33333-3333--------| b--0-00000-00000-00000------|
g--0-00000-00000-0000--------| g--0-00000-00000-00000------|
d--0-00000-00000-0000--------| d--2-22222-22222-22222------|
a--2-22222-22222-2222--------| a--2-22222-22222-22222-2-2--|
E--3-33333-33333-3333-3-2--0-| E--0-00000-00000-00000-0-0--|

e--6-66666-66666-66666-6666--| e--0-00000-00000-00000-0000--|
b--5-55555-55555-55555-5555--| b--1-11111-11111-11111-1111--|
g--6-66666-66666-66666-6666--| g--0-00000-00000-00000-0000--|
d--6-66666-66666-66666-6666--| d--2-22222-22222-22222-2222--|
a--4-44444-44444-44444-4444--| a--3-33333-33333-33333-3333--|
E----------------------------| E--x-xxxxx-xxxxx-xxxxx-xxxx--|
Play this twice

Interlude (Gtr 1)
e--3--3--3--3-3-|-0--0--0--0-0-|-6--6--6--6-6-|-0--0--0--0-0-|
b--3--3--3--3-3-|-0--0--0--0-0-|-6--6--6--6-6-|-1--1--1--1-1-|
g--0--0--0--0-0-|-0--0--0--0-0-|-6--6--6--6-6-|-0--0--0--0-0-|
d--0--0--0--0-0-|-2--2--2--2-2-|-6--6--6--6-6-|-2--2--2--2-2-|
a--2--2--2--2-2-|-2--2--2--2-2-|-4--4—-4--4-4-|-3--3--3--3-3-|
E--3--3--3--3-3-|-0--0--0--0-0-|--------------|--------------|


Interlude (Gtr 2)
e-------------------|------------|----------------|------------|
b-------------------|------------|----------------|------------|
g-------------------|------------|-6--6--6--6-7-6-|-5--5--7--5-|
d--5--5--5-7-9-7--5-|-2--2--4--2-|-6--6--6--6-7-6-|-5--5--7--5-|
a--5--5--5-7-9-7--5-|-2--2—-4--2-|-4--4--4--4-5-4-|-3--3--5--3-|
E--3--3--3-5-7-5--3-|-0--0--2--0-|----------------|------------|

Verse 2 (Gtr 1)
e---------|--------|--------|---------|
b---------|--------|--------|---------|
g---------|--------|----6~~-|---0-5~~-|
d---0-5~~-|----2~~-|---6----|---------|
a---------|---2----|--4-----|--3------|
E--3------|--0-----|--------|---------|

Verse 2 (Gtr 2)
e--3-33333-33333-3333--------| e--0-00000-00000-00000------|
b--3-33333-33333-3333--------| b--0-00000-00000-00000------|
g--0-00000-00000-0000--------| g--0-00000-00000-00000------|
d--0-00000-00000-0000--------| d--2-22222-22222-22222------|
a--2-22222-22222-2222--------| a--2-22222-22222-22222-2-2--|
E--3-33333-33333-3333-3-2--0-| E--0-00000-00000-00000-0-0--|

e--6-66666-66666-66666-6666--| e--0-00000-00000-00000-0000--|
b--5-55555-55555-55555-5555--| b--1-11111-11111-11111-1111--|
g--6-66666-66666-66666-6666--| g--0-00000-00000-00000-0000--|
d--6-66666-66666-66666-6666--| d--2-22222-22222-22222-2222--|
a--4-44444-44444-44444-4444--| a--3-33333-33333-33333-3333--|
E----------------------------| E--x-xxxxx-xxxxx-xxxxx-xxxx--|
Play this twice

Interlude (Gtr 1)
e--3--3--3--3-3-|-0--0--0--0-0-|-6--6--6--6-6-|-0--0--0--0-0-|
b--3--3--3--3-3-|-0--0--0--0-0-|-6--6--6--6-6-|-1--1--1--1-1-|
g--0--0--0--0-0-|-0--0--0--0-0-|-6--6--6--6-6-|-0--0--0--0-0-|
d--0--0--0--0-0-|-2--2--2--2-2-|-6--6--6--6-6-|-2--2--2--2-2-|
a--2--2--2--2-2-|-2--2--2--2-2-|-4--4—-4--4-4-|-3--3--3--3-3-|
E--3--3--3--3-3-|-0--0--0--0-0-|--------------|--------------|

Gtr 1
e|---------------|---------|
B|---------------|---------|
G|--5--7--8--10--|---------|
D|--5--7--8--10--|--5~~~~--|
A|--3--5--6---8--|--5~~~~--|
E|---------------|--3~~~~--|
Gtr 2
e|------------------------------|----------|
B|------------------------------|----------|
G|--5-5-5-7-7-7-8-8-8-10-10-10--|--12~~~~--|
D|--5-5-5-7-7-7-8-8-8-10-1--10--|--12~~~~--|
A|--3-3-3-5-5-5-6-6-6--8--8--8--|--10~~~~--|
E|------------------------------|----------|


Lyrics
Now come one come all to this tragic affair
Wipe off that makeup, what's in is despair
So throw on the black dress, mix in with the lot
You might wake up and notice you're someone you're not

If you look in the mirror and don't like what you see
You can find out firsthand what it's like to be me
So gather 'round piggies and kiss this goodbye
I'd encourage your smiles I'll expect you won't cry

Another contusion, my funeral jag
Here's my resignation, I'll serve it in drag
You've got front row seats to the penitence ball
When I grow up I want to be nothing at all! 

I said yeah, yeah! 
I said yeah, yeah!

C'mon C'mon C'mon I said
(Save me!) Get me the hell out of here
(Save me!) Too young to die and my dear
(You can't!) If you can hear me just walk away and
(Take me!)
Suggest correction
comments
print report bad tab
3 comments total.
0 reply
river_of_souls 64 Jan 18, 2007 01:09 PM

the chords for the verse (i think) should be

..G...Em...C#m...C
--3----0----4----3----
--3----0----5----5----
--4----0----6----5----
--5----2----6----5----
--5----2----4----3----
--3----0---------x----

sounds better to me

whatever

4 stars

0 reply
gsh43 16 Jan 19, 2007 12:03 AM

okay.......the part in between the g and the e chord is actually 3rd fret 2nd fret and then play it open. but good tab i'm giving it 41
stars

0 reply
Draconey 62 Jul 10, 2007 11:52 PM

Amazing tab....
I am going to play this for everyone I know lol

guest
You may want to rate the tab now too:
select rating
Wanna post a correction for this tab? Suggest correction