Oops, an error
Loading. Please wait.

Famous Last Words Bass Tab

version 1
version 1
100,972 views 132 this week
33 commentsread comments
1 2 3 4 5
excellent!
x 99
add to favorites
launch autoscroll
font size
0
reset
guitar tuner
Autoscroll
slow
fast
+/-
esc
set tempo
stop
Help us to improve Ultimate-Guitar.com Take our survey!
×
Author
My Chemical Romance – Famous Last Words, from album The Black Parade

Standard Tuning: EADG


[Intro]

 (0:15)
G|-----------------------------------------------------------------------------|
D|-----------------------------------------------------------------------------|
A|-5-5---------1-1--------------------1-1-1-1-1-1-1-1--3-3-3-3-3-3-3-3---------|
E|--------------------------3-3------------------------------------------------|

G|-----------------------------------------------------------------------------|
D|-----------------------------------------------------------------------------|
A|-5-5---5-5---5-5-5-5-5-5-5-5-5-5-5-5-5-5-5-5---------------------------------|
E|-----------------------------------------------------------------------------|


[Verse 1]

G|-----------------------------------------------------------------------------|
D|-----------------------------------------------------------------------------|
A|-5-5-5-5-5-5-5-5-5-5-5-5--3-3-3-3--1-1-1-1-1-1-1-1-1-1-1-1-------------------|
E|-----------------------------------------------------------------------------|

G|-----------------------------------------------------------------------------|
D|-----------------------------------------------------------------------------|
A|--------------------------------------------1-1-1-1-1-1-1-1--3-3-3-3-3-3-3-3-|
E|-5-5-5-5--3-3-3-3-3-3-3-3--5-5-5-5-5-5-5-5-----------------------------------|

G|-----------------------------------------------------------------------------|
D|-----------------------------------------------------------------------------|
A|-5-5-5-5-5-5-5-5-5-5-5-5--3-3-3-3--1-1-1-1-1-1-1-1-1-1-1-1-------------------|
E|-----------------------------------------------------------------------------|

G|-----------------------------------------------------------------------------|
D|-----------------------------------------------------------------------------|
A|--------------------------------------------1-1-1-1-1-1-1-1--3-3-3-3-3-------|
E|-5-5-5-5--3-3-3-3-3-3-3-3--5-5-5-5-5-5-5-5-----------------------------------|



[Chorus]

G|-----------------------------------------------------------------------------|
D|-----------------------------------------------------------------------------|
A|-8-8-8-8-8-8-8-8-8-8-8-8--7-7-7-7--5-5-5-5-5-5-5-5-5-5-5-5-------------------|
E|-----------------------------------------------------------5-5-5-5-----------|

G|-----------------------------------------------------------------------------|
D|-----------------------------------------------------------------------------|
A|-1-1-1-1-1-1-1-1--3-3-3-3-3-3-3-3-----------------3-3-3-3-3-3-3-3------------|
E|----------------------------------3-3-3-3-3-3-3-3----------------------------|


[Post-Chorus]

G|-----------------------------------------------------------------------------|
D|-----------------------------------------------------------------------------|
A|-5-5---5-5---5-5-5-5-5-5-5-5-5-5-5-5-5-5-5-5---------------------------------|
E|-----------------------------------------------------------------------------|


[Verse 2]

G|-----------------------------------------------------------------------------|
D|-----------------------------------------------------------------------------|
A|-5-5-5-5-5-5-5-5-5-5-5-5--3-3-3-3--1-1-1-1-1-1-1-1-1-1-1-1-------------------|
E|-----------------------------------------------------------------------------|

G|-----------------------------------------------------------------------------|
D|-----------------------------------------------------------------------------|
A|--------------------------------------------1-1-1-1-1-1-1-1--3-3-3-3-3-3-3-3-|
E|-5-5-5-5--3-3-3-3-3-3-3-3--5-5-5-5-5-5-5-5-----------------------------------|

G|-----------------------------------------------------------------------------|
D|-----------------------------------------------------------------------------|
A|-5-5-5-5-5-5-5-5-5-5-5-5--3-3-3-3--1-1-1-1-1-1-1-1-1-1-1-1-------------------|
E|-----------------------------------------------------------------------------|

G|-----------------------------------------------------------------------------|
D|-----------------------------------------------------------------------------|
A|--------------------------------------------1-1-1-1-1-1-1-1--3-3-3-3-3-------|
E|-5-5-5-5--3-3-3-3-3-3-3-3--5-5-5-5-5-5-5-5-----------------------------------|


[Chorus] (x2)

G|-----------------------------------------------------------------------------|
D|-----------------------------------------------------------------------------|
A|-8-8-8-8-8-8-8-8-8-8-8-8--7-7-7-7--5-5-5-5-5-5-5-5-5-5-5-5-------------------|
E|-----------------------------------------------------------5-5-5-5-----------|

G|-----------------------------------------------------------------------------|
D|-----------------------------------------------------------------------------|
A|-1-1-1-1-1-1-1-1--3-3-3-3-3-3-3-3-----------------3-3-3-3-3-3-3-3------------|
E|----------------------------------3-3-3-3-3-3-3-3----------------------------|


[Bridge]

G|-----------------------------------------------------------------------------|
D|-----------------------------------------------------------------------------|
A|-5-5-5--3-3-3--1-1-1---------------------------------------------------------|
E|---------------------5-5-5--3-3--1-1--3-3-3-3-3-3-3-3--5-5-5-5-5-5-5-5-------|(x3)

G|-----------------------------------------------------------------------------|
D|-----------------------------------------------------------------------------|
A|-5-5-5--3-3-3-1-1-1-----------------------------------3-3-3-3-3-3-3-3-/8-8---|
E|---------------------5-5-5--3-3--1-1--3-3-3-3-3-3-3-3------------------------|


[Outro]

(3:23) (Repeat to end, on the last time get quieter)

G|-----------------------------------------------------------------------------|
D|-----------------------------------------------------------------------------|
A|-------------------------3-3-3-3--5-5-5-5-5-5-5-5-5-5-5-5--3-3-3-3-----------|
E|-5-5-5-5-5-5-5-5-5-5-5-5-----------------------------------------------------|

G|-----------------------------------------------------------------------------|
D|-----------------------------------------------------------------------------|
A|-1-1-1-1-1-1-1-1--3-3-3-3-3-3-3-----------------3-3-3-3-3-3-3-3--------------|
E|--------------------------------3-3-3-3-3-3-3-3------------------------------|                          

G|-----------------------------------------------------------------------------| 
D|-----------------------------------------------------------------------------| 
A|-8-8-8-8-8-8-8-8-8-8-8-8--7-7-7-7--5-5-5-5-5-5-5-5-5-5-5-5-------------------| 
E|-----------------------------------------------------------5-5-5-5-----------| 

G|-----------------------------------------------------------------------------|
D|-----------------------------------------------------------------------------|
A|1-1-1-1-1-1-1-1--3-3-3-3-3-3-3-3---------------------------------------------|
E|---------------------------------3-3-3-3-3-3-3-3/8-8-8-8--6-6-6-6------------|

************************************

| /  Slide up

************************************
Suggest correction
What's this?
You can suggest a correction to this tab. Community and Mods will review your correction and vote to approve or reject it.
comments
print report bad tab
33 comments total. Showing first comments.
+2 reply
hackett1991 117 wrote on December 15 2006, 12:24 pm

really good tab, quality song. keep it up adam!!!

0 reply
punk_isntemo12 314 wrote on December 26 2006, 10:00 pm

i love this song. you did a great job tabbing it. keep tabbing!!!

0 reply
frostguitarist 16 wrote on December 28 2006, 09:40 pm

I have listened to "Famous Last Words" over and over on my iPod... when i picked up my bass and started to play along with your tab.. it was dead on. keep up the great work ^^

guest
You may want to rate the tab now too:
select rating
Please do not post tabs as comments. Select "correction" instead!