Oops, an error
Loading. Please wait.

Famous Last Words Bass Tab

version 1
version 1
98,623 views 150 this week
33 commentsread comments
1 2 3 4 5
excellent!
x 95
add to favorites
launch autoscroll
font size
0
reset
guitar tuner
Tab Pro tools
  • play this tab
  • loop segment
  • change instrument
  • show fretboard
  • metronome
×
Best way to learn
"Famous Last Words"
Autoscroll
slow
fast
+/-
esc
set tempo
stop
Contributor
My Chemical Romance – Famous Last Words, from album The Black Parade

Standard Tuning EADG

Intro 0.15
|---------------------------------------------------|
|---------------------------------------------------|
|-55---------11-------------------11111111-33333333-|
|-------------------------33------------------------|

|----------------------------|
|----------------------------|
|-55---55---5555555555555555-|
|----------------------------|

Verse
|-------------------------------------------------------------------------|
|-------------------------------------------------------------------------|
|-555555555555-3333-111111111111------------------------11111111-33333333-|
|--------------------------------5555-33333333-55555555-------------------|

|----------------------------------------------------------------------|
|----------------------------------------------------------------------|
|-555555555555-3333-111111111111------------------------11111111-33333-|
|--------------------------------5555-33333333-55555555----------------|

Chorus
|-------------------------------------------------------------------------|
|-------------------------------------------------------------------------|
|-888888888888-7777-555555555555------11111111-33333333----------33333333-|
|--------------------------------5555-------------------33333333----------|

Post Chorus
|----------------------------|
|----------------------------|
|-55---55---5555555555555555-|
|----------------------------|

Verse
|-------------------------------------------------------------------------|
|-------------------------------------------------------------------------|
|-555555555555-3333-111111111111------------------------11111111-33333333-|
|--------------------------------5555-33333333-55555555-------------------|

|----------------------------------------------------------------------|
|----------------------------------------------------------------------|
|-555555555555-3333-111111111111------------------------11111111-33333-|
|--------------------------------5555-33333333-55555555----------------|

Chorus
|-------------------------------------------------------------------------|
|-------------------------------------------------------------------------|X2
|-888888888888-7777-555555555555------11111111-33333333----------33333333-|
|--------------------------------5555-------------------33333333----------|

Bridge
|-----------------------------------------|
|-----------------------------------------| X3
|-555-333-111-----------------------------|
|-------------555-33-11-33333333-55555555-|

|---------------------------------------------|
|---------------------------------------------|
|-555-333-111--------------------33333333-/88-|
|-------------555-33-11-33333333--------------|

Outro 3.23 (Repeat to end, on the last time get quieter)
|------------------------------------------------------------------------|
|------------------------------------------------------------------------|
|--------------3333-555555555555-3333-11111111-3333333----------33333333-|
|-555555555555-----------------------------------------33333333----------|
                                                                          
|--------------------------------------------------------------------------|
|--------------------------------------------------------------------------|
|-888888888888-7777-555555555555------11111111-33333333--------------------|
|--------------------------------5555-------------------33333333/8888-6666-|

That’s what I think it goes like.
Please rate it and email me if you have any problems, adam.vaughan@hotmail.co.uk

Adam Vaughan

/ = Slide Up
~ = Let ring
comments
print report bad tab
33 comments total. Showing first comments.
+2 reply
hackett1991 wrote on December 15 2006, 12:24 pm

really good tab, quality song. keep it up adam!!!

0 reply
punk_isntemo12 wrote on December 26 2006, 10:00 pm

i love this song. you did a great job tabbing it. keep tabbing!!!

0 reply
frostguitarist wrote on December 28 2006, 09:40 pm

I have listened to "Famous Last Words" over and over on my iPod... when i picked up my bass and started to play along with your tab.. it was dead on. keep up the great work ^^

I want to post or [tab]
guest
You may want to rate the tab now too:
select rating
Please do not post tabs as comments. Select "correction" instead!