Oops, an error
Loading. Please wait.

Famous Last Words Tab

version 1
version 1
11,188 views 69 this week
1 commentread comment
1 2 3 4 5
x 4
add to favorites
launch autoscroll
font size
0
reset
how to read this tab
guitar tuner
×
Best way to learn
"Famous Last Words"
Autoscroll
slow
fast
+/-
esc
set tempo
stop
Author
Difficulty
  follow
intermediate
e|10----------10-----------15-13--|----------------1310------------|
B|13b15-------13b15--r13p10---13--|---b15------15------13101310--10|
G|--------------------------------|----------------------------12--|
D|--------------------------------|--------------------------------|
A|--------------------------------|--------------------------------|
E|--------------------------------|--------------------------------|
   
e|10----------10------------------|--------------------------------|
B|13b15-------13b15---13p1013--10-|---15b16r15--13-----------------|
G|--------------------------------|---16b17r16--14--1412----1210---|
D|--------------------------------|----------------------x-x----x-x|
A|--------------------------------|---------------------pmpm---pmpm|
E|--------------------------------|--------------------------------|

e|--------------------------------|--------------------------------|
B|--------------------------------|----------------101010108-8-8-8-|
G|1010101010109-9-9-9-9-9-12121212|1212101010101010----------------|
D|--------------------------------|--------------------------------|
A|--------------------------------|--------------------------------|
E|--------------------------------|--------------------------------|
      
e|--------------------------------|--------------------------------|
B|10b11------10b11----10p8-11--10-|----8---------------------------|
G|--------------------------------|------------10--1210----12-9----|
D|--------------------------------|--------------------1214----1210|
A|--------------------------------|--------------------pmpm----pmpm|
E|--------------------------------|--------------------------------|

e|--------------------------------|--------------------------------|
B|--------------------------------|--------------------------------|
G|--------------------------------|--------------------------------|
D|10h12-------10h12-------10h12---|----10----------8-------7-------|
A|--------------------------------|----10----------8-------7-------|
E|--------------------------------|--------------------------------|

e|---------------------------------------------------------------------------------|
B|---------------------------------------------------------------------------------|
G|---------------------2-3-2--0-2-3--5-2-5--2-3-5--7----99---1010---1212---1414----|
D|--------------0-2-3--------------------------------------------------------------|
A|-------0-1-3---------------------------------------------------------------------|
E|0-1-3----------------------------------------------------------------------------|
      
e|10-------10-------13--13-----13-------------13------13-----------|
B|13b15----13b15--------15-----15r13-----b15----b15-----b15---b15--|
G|---------------^^^^^^^^^^^^^^^^----14----------------------------|
D|-----------------------------------------------------------------|
A|-----------------hold-the-bend-----------------------------------|
E|-----------------------------------------------------------------|
 
e|--------------------------------|15--15--15--15--15--15--15------|
B|15--15--15--15--15--15--15------|--------------------------------|
G|----------------------------x---|----------------------------x---|
D|--------------------------------|--------------------------------|
A|--------------------------------|--------------------------------|
E|--------------------------------|--------------------------------|

e|--17--17------------------------|--------------------------------|
B|--18--18------------------------|--------------------------------|
G|--------------------------------|--------------------------------|
D|--------------------------------|--------------------------------|
A|--------------------------------|--------------------------------|
E|--------------------------------|--------------------------------|


************************************

| p  Pull-off
| r  Release
| b  Bend
| x  Dead note
| h  Hammer-on

************************************
Suggest correction
comments
print report bad tab
1 comment total.
0 reply
myperuba 483 Aug 07, 2012 09:01 AM

This should have said solo on the title.

guest
You may want to rate the tab now too:
select rating
Wanna post a correction for this tab? Suggest correction