Oops, an error
Loading. Please wait.

Famous Last Words Bass Tab

version 3
version 3
2,374 views 6 this week
no commentswrite comment
1 2 3 4 5
3 more votes to show rating
add to favorites
launch autoscroll
font size
0
reset
guitar tuner
Autoscroll
slow
fast
+/-
esc
set tempo
stop
Help us to improve Ultimate-Guitar.com Take our survey!
×
Author
Difficulty
Yet again someone has requested tabs from one of my bass covers, so I'm posting them up here.
Pretty easy song, the other tabs on this site were good, but left out some of the fills.
Because MCR's songs are fairly easy, Mikey (the bassist) tends to make it somewhat 
interesting by leaving in a few gaps or adding a fill once in a while.

Check out my bass cover of this song!

http://www.youtube.com/watch?v=wW0kH8K6Oq4

Check out my channel for more covers!

http://www.youtube.com/user/chrisistheazn

Intro

Bass comes in at 0:16

G|--------------------------------------------------------------------------------|
D|--------------------------------------------------------------------------------|
A|-5-5-------------1-1------------------------------------------------------------|
E|----------------------------------3-3---------6-6-6-6-6-6-6-6-8-8-8-8-8-8-8-8---|

G|--------------------------------------------------------------------------------|
D|--------------------------------------------------------------------------------|
A|-5-5-------------5-5-------------5-5---5-5---5---5-5-5-5-5-5-5------------------|
E|---------------------------------------------------------------5----------------|

Verse 1

G|-----------------------------------------------------------------------|
D|-----------------------------------------------------------------------|
A|-5-5-5-5-5-5-5-5-5-5-5-5-3-3-3-3-1-1-1-1-1-1-1-1-1-1-1-1---------------|
E|---------------------------------------------------------5-5-5-5-------|

G|-----------------------------------------------------------------------|
D|-----------------------------------------------------------------------|
A|-----------------------------------------------------------------------|
E|-3-3-3-3-3-3-3-3-5-5-5-5-5-5-5-5-6-6-6-6-6-6-6-6-8-8-8-8-8-8-8-8-------|

G|-----------------------------------------------------------------------|
D|-----------------------------------------------------------------------|
A|-5-5-5-5-5-5-5-5-5-5-5-5-3-3-3-3-1-1-1-1-1-1-1-1-1-1-1-1---------------|
E|---------------------------------------------------------5-5-5---------|

G|-----------------------------------------------------------------------|
D|-----------------------------------------------------------------------|
A|-----------------------------------------------------------------------|
E|-3-3-3-3-3-3-3-3-5-5-5-5-5-5-5-5-6-6-6-6-6-6-6-6-8-8-8-8-8-------------|

Chorus 1

G|-----------------------------------------------------------------------|
D|-----------------------------------------------------------------------|
A|-8-8-8-8-8-8-8-8-8-8-8-8-7-7-7-7-5-5-5-5-5-5-5-5-5-5-5-5---------------|
E|---------------------------------------------------------5-5-5-5-------|

G|-----------------------------------------------------------------------|
D|-----------------------------------------------------------------------|
A|-----------------------------------------------------------------------|
E|-6-6-6-6-6-6-6-6-8-8-8-8-8-8-8-8-3-3-3-3-3-3-3-3-8-8-8-8-8-8-8-8-------|

After-Chorus

G|--------------------------------------------------------------------------------|
D|--------------------------------------------------------------------------------|
A|-5-5-------------5-5-------------5-5-5-5-5-5-5-5-5-5-5-5-5-5-5------------------|
E|---------------------------------------------------------------5----------------|

Verse 2

G|-----------------------------------------------------------------------|
D|-----------------------------------------------------------------------|
A|-5-5-5-5-5-5-5-5-5-5-5-5-3-3-3-3-1-1-1-1-1-1-1-1-1-1-1-1---------------|
E|---------------------------------------------------------5-5-5-5-------|

G|-----------------------------------------------------------------------|
D|-----------------------------------------------------------------------|
A|-----------------------------------------------------------------------|
E|-3-3-3-3-3-3-3-3-5-5-5-5-5-5-5-5-6-6-6-6-6-6-6-6-8-8-8-8-8-8-8-8-------|

G|-----------------------------------------------------------------------|
D|-----------------------------------------------------------------------|
A|-5-5-5-5-5-5-5-5-5-5-5-5-3-3-3-3-1-1-1-1-1-1-1-1-1-1-1-1---------------|
E|---------------------------------------------------------5-5-5-5-------|

G|-----------------------------------------------------------------------|
D|-----------------------------------------------------------------------|
A|-----------------------------------------------------------------------|
E|-3-3-3-3-3-3-3-3-5-5-5-5-5-5-5-5-6---6-6-6-6-6-6-8-8-8-8-8-------------|

Chorus 2

G|-----------------------------------------------------------------------|
D|-----------------------------------------------------------------------|
A|-8-8-8-8-8-8-8-8-8-8-8-8-7-7-7-7-5-5-5-5-5-5-5-5-5-5-5-5---------------|
E|---------------------------------------------------------5-5-5-5-------|

G|-----------------------------------------------------------------------|
D|-----------------------------------------------------------------------|
A|-----------------------------------------------------------------------|
E|-6-6-6-6-6-6-6-6-8-8-8-8-8-8-8-8-3-3-3-3-3-3-3-3-8-8-8-8-8-8-8-8-------|

G|-----------------------------------------------------------------------|
D|-----------------------------------------------------------------------|
A|-8-8-8-8-8-8-8-8-8-8-8-8-7-7-7-7-5-5-5-5-5-5-5-5-5-5-5-5---------------|
E|---------------------------------------------------------5-5-5-5-------|

G|-----------------------------------------------------------------------|
D|-----------------------------------------------------------------------|
A|-----------------------------------------------------------------------|
E|-6-6-6-6-6-6-6-6-8-8-8-8-8-8-8-8-3-3-3-3-3-3-3-3-3-8-8-8-8-8-8-8-------|

Bridge Part 1

G|---------------------------------------------------------------------------|
D|---------------------------------------------------------------------------|  x2
A|-5-5-5-3-3-3---------------------------------------------------------------|
E|-------------6-6-6-5-5-5-3-3-1-1-3-3-3-3-3-3-3-3-5-5-5-5-5-5-5-5-----------|

G|---------------------------------------------------------------------------|
D|---------------------------------------------------------------------------|
A|-5-5-5-7-7-7---------------------------------------------------------------|
E|-------------6-6-6-5-5-5-3-3-1-1-3-3-3-3-3-3-3-3-3-5-5-5-5-5-5-5-----------|

G|---------------------------------------------------------------------------|
D|---------------------------------------------------------------------------|
A|-5-5-5-3-3-3-----------------------------------------------------8-8-------|
E|-------------6-6-6-5-5-5-3-3-1-1-3-3-3-3-3-3-3-3-8-8-8-8-8-8-8-8-----------|

Bridge Part 2

Bass comes in at 3:27. I know it's kinda weird he starts playing at this time but that's 
what in the recording...

G|-----------------------------------------------------------------------|
D|-----------------------------------------------------------------------|
A|---------------------------------5-5-5-5-5-5-5-5-5-5-5-5---------------|
E|---------------------------------------------------------8-8-8-8-------|

G|-----------------------------------------------------------------------|
D|-----------------------------------------------------------------------|
A|-----------------------------------------------------------------------|
E|-6-6-6-6-6-6-6-6-8-8-8-8-8-8-8-8-3-3-3-3-3-3-3-3-8-8-8-8-8-8-8-8-------|

G|-----------------------------------------------------------------------|
D|-----------------------------------------------------------------------|
A|-8-8-8-8-8-8-8-8-8-8-8-8-7-7-7-7-5-5-5-5-5-5-5-5-5-5-5-5---------------|
E|---------------------------------------------------------5-5-5-5-------|

G|-----------------------------------------------------------------------|
D|-----------------------------------------------------------------------|
A|-----------------------------------------------------------------------|
E|-6-6-6-6-6-6-6-6-8-8-8-8-8-8-8-8-3-3-3-3-3-3-3-3-8-8-8-8-6-6-6-6-------|

G|-----------------------------------------------------------------------|
D|-----------------------------------------------------------------------|
A|---------------------------------5-5-5-5-5-5-5-5-5-5-5-5---------------|
E|-5-5-5-5-5-5-5-5-5-5-5-5-8-8-8-8-------------------------8-8-8-8-------|

G|-----------------------------------------------------------------------|
D|-----------------------------------------------------------------------|
A|-----------------------------------------------------------------------|
E|-6-6-6-6-6-6-6-6-8-8-8-8-8-8-8-8-3-3-3-3-3-3-3-3-8-8-8-8-8-8-8-8-------|

Chorus 3

G|-----------------------------------------------------------------------|
D|-----------------------------------------------------------------------|
A|-8-8-8-8-8-8-8-8-8-8-8-8-7-7-7-7-5-5-5-5-5-5-5-5-5-5-5-5---------------|
E|---------------------------------------------------------5-5-5-5-------|

G|-----------------------------------------------------------------------|
D|-----------------------------------------------------------------------|
A|-----------------------------------------------------------------------|
E|-6-6-6-6-6-6-6-6-8-8-8-8-8-8-8-8-3-3-3-3-3-3-3-3-8-8-8-8-6-6-6-6-------|

G|-----------------------------------------------------------------------|
D|-----------------------------------------------------------------------|
A|---------------------------------5-5-5-5-5-5-5-5-5-5-5-5---------------|
E|-5-5-5-5-5-5-5-5-5-5-5-5-8-8-8-8-------------------------8-8-8-8-------|

G|-----------------------------------------------------------------------|
D|-----------------------------------------------------------------------|
A|-----------------------------------------------------------------------|
E|-6-6-6-6-6-6-6-6-8-8-8-8-8-8-8-8-3-3-3-3-3-3-3-3-8-8-8-8-8-8-8-8-------|

Bass slowly fades in that last part

G|-----------------------------------------------------------------------|
D|-----------------------------------------------------------------------|
A|-8-8-8-8-8-8-8-8-8-8-8-8-7-7-7-7-5-5-5-5-5-5-5-5-5-5-5-5---------------|
E|---------------------------------------------------------5-5-5-5-------|

Now in my cover I did a little riff at the end so I'm just gonna tab it out here since 
someone else asked me to tab out my riff.
I did it a little differently in my video but this is way I wanted to play it.

G|-------------------------------------------------------------------------|
D|-------------------------------------------------12-12-12-12-7-7-7-7-----|
A|-8-8-8-8-8-8-8-8-8-8-8-8-7-7-7-7-5-5-5-5-5-5-5-5-------------------------|
E|-------------------------------------------------------------------------|

G|-7---7-9-10-9-7---9----9-10-12-10-9------------9-10-12-10-9-------------9-12-14-12-17--|
D|---8------------8---10---------------10-12---------------------10----12----------------|
A|--------------------------------------------10--------------10----10-------------------|
E|---------------------------------------------------------------------------------------|
Suggest correction
Give kudos to tab author, rate the tab!
1 2 3 4 5
comments
print report bad tab
guest
You may want to rate the tab now too:
select rating
Wanna post a correction for this tab? Suggest correction