Oops, an error
Loading. Please wait.

Ftwww Tab

version 1
version 1

Whole song

2,646 views 9 this week
no commentswrite comment
1 2 3 4 5
x 3
add to favorites
launch autoscroll
font size
0
reset
how to read this tab
guitar tuner
×
Best way to learn
"Ftwww"
Autoscroll
slow
fast
+/-
esc
set tempo
stop
Author
Difficulty
Tuning
novice
E A D G B E
------------------------------------------------------------------------------------------------
My first tab, if I can play it anybody can.
~ means to slide to the next chord
P means palm muted


e|--------------------------------------|
B|-----7----6~ 5-5----------------------|
G|-----6----5~ 4-4------4-x-4-4-3-2-----|
D|-----4----3~ 2-2------4-x-4-4-3-2-----|
A|-------------------------2-x-2-2-1-0--|
E|--------------------------------------|

e|-------------------------------------|
B|-----7----6~ 5-5---------------------|
G|-----6----5~ 4-4------4-4-x--3-2-----|
D|-----4----3~ 2-2------4-4-x--3-2-----|
A|-------------------------2-2-x--1-0--|
E|-------------------------------------|
Play that to about 0:33 in the song


------------------------------------------------------|
------(p)----------------------------------------(p)--|
---4--4--------------------------------------2--2-----|
---4--4-(Palm muted part x7)-----------2--2-(x7)------|
---2--2--------------------------------------0--0-----|
e|                   (both of these played twice)
B|------(p)----------------------------------------(p)------------|
G|---4--4--------------------------------------2--2-------3-------|
D|---4--4-(Palm muted part x7)-----------2--2-(x3)-3--------------|
A|---2--2--------------------------------------0--0-------1-------|
E|-----------------------------------(skip this the second time)--|

e|-------------------------------------|(second part here!~!~!~!~!)
B|-----(p)-----------------------------|
G|---2-2-3-----------------------------|
D|---2-2-3-----------------------------|
A|---0-0-1-----------------------------|
E|-------------------------------------|

I'll finish it later when I have a computer (did this on my iPod), plz correct if u c mistakes.
Suggest correction
Give kudos to tab author, rate the tab!
1 2 3 4 5
comments
print report bad tab
guest
You may want to rate the tab now too:
select rating
Wanna post a correction for this tab? Suggest correction