Oops, an error
Loading. Please wait.

Ftwww Tab

version 2
version 2

Whole song

3,754 views 6 this week
no commentswrite comment
1 2 3 4 5
excellent!
x 2
add to favorites
launch autoscroll
font size
0
reset
how to read this tab
guitar tuner
Tab Pro tools
  • play this tab
  • loop segment
  • change instrument
  • show fretboard
  • metronome
Autoscroll
slow
fast
+/-
esc
set tempo
stop
Contributor
-----------------------------------------------------------------------------
                                   F.T.W.W.W - My Chemical Romance
-----------------------------------------------------------------------------
Tabbed by: Tristen Jones
Email: tristen_bjones@yahoo.com

Okay guys, this is my first tab. Tell me what you think and criticize if necessary :) Cheers!

Tuning: Standard

Guitar 1 - Ray Toro
Guitar 2 - Frank Iero
Guitar 3 - Overdubbed

Intro:
Guitar 1:
e|----------------------------------------------------------------------|
B|--11--X--10--9-9--X---------------11--X--10--9-9----------------------|
G|--11--X--10--9-9--X---------------11--X--10--9-9--------------X-X-X-X-| x2
D|--11--X--10--9-9--X--9-X-9-9-8-7--11--X--10--9-9--9-9-9-9-6-7-X-X-X-X-|
A|--9---X--8---7-7--X--9-X-9-9-8-7--9---X--8---7-7--9-9-9-9-6-7-X-X-X-X-|
E|---------------------7-X-7-7-6-5------------------7-7-7-7-8-5-X-X-X-X-|

Guitar 2 (Only do this on the second repeat of the Intro):
e|----------------------------------------------------------------------|
B|----------------------------------------------------------------------|
G|----------------------------------------------------------------------|
D|----------------------------------------------------------------------|
A|----------------------------------------------------------------------|
E|---<<>>-17/-------------------------<<>>-17/--------------------------|

Verse:

Guitar 1 (Just repeating the intro):
e|------------------------------------------------------------------------|
B|--11--X--10--9-9--X-----------------11--X--10--9-9----------------------|
G|--11--X--10--9-9--X-----------------11--X--10--9-9--------------X-X-X-X-| x2
D|--11--X--10--9-9--X--9-X-9-9-8-5----11--X--10--9-9--9-9-9-9-8-7-X-X-X-X-|
A|--9---X--8---7-7--X--9-X-9-9-8-5----9---X--8---7-7--9-9-9-9-8-7-X-X-X-X-|
E|---------------------7-X-7-7-6-7--------------------7-7-7-7-6-5-X-X-X-X-|

Guitar 2:
e|---------------------------------------------------------------------------|
B|---------------------------------------------------------------------------|
G|-11--X--14--16-16-X---14-X-14-16-14--11--X--14--16-16-------------X-X-X-X--|
D|-x---X--x---x--x--X---x--X-x--x--x---x---X--x---x--x--9-9-9-9-8-7-X-X-X-X--|
A|-9---X--12--14-14-X---12-X-12-14-12--9---X--12--14-14-9-9-9-9-8-7-X-X-X-X--|
E|------------------------------------------------------7-7-7-7-6-5-X-X-X-X--|
Cont.
e|---------------------------------|
B|---------------------------------|
G|-11-X-9-9/11-11~-X---------------|
D|-x--X-x-x/x--x-~-X--9-X-9-9-8-7--|
A|-9--X-7-7/9--9-~-X--9-X-9-9-8-7--|
E|--------------------7-X-7-7-6-5--|
Cont.
e|----------------------------------------|
B|----------------------------------------|
G|-11-X-9-9/11-11~-X--------------X-X-X-X-|
D|-x--X-x-x/x--x-~-X--9-9-9-9-8-7-X-X-X-X-|
A|-9--X-7-7/9--9-~-X--9-9-9-9-8-7-X-X-X-X-|
E|--------------------7-7-7-7-6-5-X-X-X-X-|
While Guitar 2 plays the ABOVE, Guitar 3 plays this:
e|---------------------------------------|
B|---------------------------------------|
G|-11--X--14--16-16-------------X-X-X-X--|
D|-x---X--x---x--x--9-9-9-9-8-7-X-X-X-X--|
A|-9---X--12--14-14-9-9-9-9-8-7-X-X-X-X--|
E|------------------7-7-7-7-6-5-X-X-X-X--|

Chorus:

Guitar 1:
e|-----------------------------------------------|
B|-----------------------------------------------|
G|--9-11-9-11-9-11-9-11-9-11-9-11--6-6-6-7-6-----|
D|-----------------------------------------------|
A|-----------------------------------------------|
E|-----------------------------------------------|
Cont.
e|-----------------------------------------------|
B|----------------------10-----------------------|
G|--9-11-9-11-9-11-9-11----9-11-9-11--6-6-6-7-6--|
D|-----------------------------------------------|
A|-----------------------------------------------|
E|-----------------------------------------------|

Guitar 2:
e|-------------------------------------------------------------------------|
B|-------------------------------------------------------------------------|
G|------------------------------------4------------------------------------| x2
D|--4----------------2----------------4-4-4-4-4-4-4-4--7-------------------|
A|--4-4-4-4-4-4-4-4--2-2-2-2-2-2-2-2--2-2-2-2-2-2-2-2--7-7-7-7-7-7---------|
E|--2-2-2-2-2-2-2-2--0-0-0-0-0-0-0-0-------------------5-5-5-5-5-5-5-7~----|
      * * * * * * *    * * * * * * *    * * * * * * *    * * * * *

**Repeat Verse x1**
**Repeat Chorus x1**

Bridge:

Guitar 1:
e|----------------------------------------------------------------------------------------|
B|-11--11-11-11-11-X----------------------------------------------------------------------|
G|-11--11-11-11-11-X-----------------------------7--7-7-7-6--4--4-4---------2h4p2---------| x3
D|-11--11-11-11-11-X--7--7-7---------5h7p5-------7--7-7-7-6--4--4-4-----2h4-------4p2-----|
A|-9---9--9--9--9--X--7--7-7-----5h7-------7p5---5--5-5-5-4--2--2-2-2h4---------------2---|
E|--------------------5--5-5-5h7---------------7------------------------------------------|
THEN:
e|-------------------------------------------------------------------------------------|
B|-11--11-11-11-11-X-------------------------------------------------------------------|
G|-11--11-11-11-11-X-----------------------------7-7-7-7-7-7-7-7-9-9-9-9-10-10-10-10---|
D|-11--11-11-11-11-X--7--7-7---------5h7p5-------7-7-7-7-7-7-7-7-x-x-x-x-x--x--x--x----|
A|-9---9--9--9--9--X--7--7-7-----5h7-------7p5---5-5-5-5-5-5-5-5-7-7-7-7-8--8--8--8----|
E|--------------------5--5-5-5h7---------------7---------------------------------------|

Guitar 2:
e|----------------------------------------------------------------------------------------|
B|----------------------------------------------------------------------------------------|
G|-11--11-11-11-11-11--14--14-14-14-14-14-14---16--16-16-16--14--11--11-11-11-11-/14\-11--| x2
D|-x---x--x--x--x--x---x---x--x--x--x--x--x----x---x--x--x---x---x---x--x--x--x--/x-\-x---|
A|-9---9--9--9--9--9---12--12-12-12-12-12-12---14--14-14-14--12--9---9--9--9--9--/12\-9---|
E|----------------------------------------------------------------------------------------|
THEN:
e|-------------------------------------------------------------------------------------|
B|-------------------------------------------------------------------------------------|
G|-17-17-17-17-16-14--17-17-17-17-16-14--14/16--16-16-16--14--11--11-11-11-11-/14\-11--|
D|-x--x--x--x--x--x---x--x--x--x--x--x---x-/x---x--x--x---x---x---x--x--x--x--/x-\-x---|
A|-15-15-15-15-14-12--15-15-15-15-14-12--12/14--14-14-14--12--9---9--9--9--9--/12\-9---|
E|-------------------------------------------------------------------------------------|
Cont.
e|---------------------------------------------------------------------------------------|
B|---------------------------------------------------------------------------------------|
G|-17-17-17-16-16-14--17-17-17-16-16-14--11-11-11-11-11-11-11-11-16-16-16-16-13-13-13-13-|
D|-x--x--x--x--x--x---x--x--x--x--x--x---x--x--x--x--x--x--x--x--x--x--x--x--x--x--x--x--|
A|-15-15-15-14-14-12--15-15-15-14-14-12--9--9--9--9--9--9--9--9--14-14-14-14-11-11-11-11-|
E|---------------------------------------------------------------------------------------|

Break:
Guitar 1:
e|-----------------------------------------------------|
B|--11--X--10--9-9--X---------------11--X--10--9-9-----|
G|--11--X--10--9-9--X---------------11--X--10--9-9-----|
D|--11--X--10--9-9--X--9-X-9-9-8-7--11--X--10--9-9--9/-|
A|--9---X--8---7-7--X--9-X-9-9-8-7--9---X--8---7-7--9/-|
E|---------------------7-X-7-7-6-5------------------7/-|

Outro:

Guitar 1:
e|----------------------------------------------------------------------|
B|--11--X--10--9-9--X---------------11--X--10--9-9----------------------|
G|--11--X--10--9-9--X---------------11--X--10--9-9--------------X-X-X-X-| x5
D|--11--X--10--9-9--X--9-X-9-9-8-7--11--X--10--9-9--9-9-9-9-8-7-X-X-X-X-|
A|--9---X--8---7-7--X--9-X-9-9-8-7--9---X--8---7-7--9-9-9-9-8-7-X-X-X-X-|
E|---------------------7-X-7-7-6-5------------------7-7-7-7-6-5-X-X-X-X-|

Guitar 2:
e|------------------------------------------------------------------------|
B|------------------------------------------------------------------------|
G|-11--X--14--16-16-X---14-X-14-16-14--11--X--14--16-16-X--9-X-9-X-X-X----|
D|-x---X--x---x--x--X---x--X-x--x--x---x---X--x---x--x--X--x-X-x-X-X-X----|
A|-9---X--12--14-14-X---12-X-12-14-12--9---X--12--14-14-X--7-X-7-X-X-X----|
E|------------------------------------------------------------------------|
Cont.
e|---------------------------------------------------------------------|
B|---------------------------------------------------------------------|
G|-11-X-9-9/11-11~-X---------------11--X--14--16-16-X--9-X-9-14-14-11--| x3
D|-x--X-x-x/x--x-~-X--9-X-9-9-8-5--x---X--x---x--x--X--x-X-x-x--x--x---|
A|-9--X-7-7/9--9-~-X--9-X-9-9-8-5--9---X--12--14-14-X--7-X-7-12-12-9---|
E|--------------------7-X-7-7-6-7--------------------------------------|
Cont.
e|------------------------------------------------------------|
B|------------------------------------------------------------|
G|-11--X--14--16-16-X--9-X-9-14-14-11--11--X--14--16----------|
D|-x---X--x---x--x--X--x-X-x-x--x--x---x---X--x---x-----------|
A|-9---X--12--14-14-X--7-X-7-12-12-9---9---X--12--14----------|
E|------------------------------------------------------------|

Guitar 3 (Starts at 1:54. Figure out timing. P.S This guitar is hard to hear at 
some parts, this is my
interpretation as to what is going on, you can mess around with an E or D scale if you want):
e|---------------------------------------------------------------------|
B|---------------------------------------------------------------------|
G|------------7h9/11--11~-11~-11~-11~-11~-11~-11~-11~-11~-11~-11~-11~--|
D|-------7h9-----------------------------------------------------------|
A|---------------------------------------------------------------------|
E|-<<>>----------------------------------------------------------------|
Cont.
e|---------------------------------------------------------------------10h12b14br12p10----|
B|---------------------------------------------------------------10h12--------------------|
G|--11\9p7---7h9 11~-11~-11~-11~-11~-11~-11~-11~-11~-11~-11~-11~--------------------------|
D|---------9------------------------------------------------------------------------------|
A|----------------------------------------------------------------------------------------|
E|----------------------------------------------------------------------------------------|

e|-9h10h12-9h10h12-9h10h12-9h10h12-9h1h12-9h10h12-9h10h12-9h10h12-9h10h12-9h10h12-9h10h12-9h10h12-|
B|------------------------------------------------------------------------------------------------|
G|------------------------------------------------------------------------------------------------|
D|------------------------------------------------------------------------------------------------|
A|------------------------------------------------------------------------------------------------|
E|------------------------------------------------------------------------------------------------|

e|9h10h12-9h10h12-9h10h12-9h10h12-9h10h12-9h10h12-9h10h12-9h10h12-9h10h12-9h10h12-9h10h12-9h10h12|
B|-----------------------------------------------------------------------------------------------|
G|-----------------------------------------------------------------------------------------------|
D|-----------------------------------------------------------------------------------------------|
A|-----------------------------------------------------------------------------------------------|
E|-----------------------------------------------------------------------------------------------|

e|-9h10h12/14-9h10h12-9h10h12/14~--------------|
B|---------------------------------------------|
G|---------------------------------------------|
D|---------------------------------------------|
A|---------------------------------------------|
E|---------------------------------------------|

End on:

Guitar 1:
e|-----------|
B|-----------|
G|-----------|
D|----9\-----|
A|----9\-----|
E|----7\-----|
Guitar 2:
e|-----------|
B|-----------|
G|----16\----|
D|----x-\----|
A|----14\----|
E|-----------|
Guitar 3:
e|----14~\---|
B|-----------|
G|-----------|
D|-----------|
A|-----------|
E|-----------|
************************************

| /   slide up
| \   slide down
| h   hammer-on
| p   pull-off
| ~   vibrato
| +   harmonic
| x   Mute note
| b   Bend
| pb  Pre-bend
| br  Bend release
| pbr Pre-bend release
| brb Bend release bend
| *   Palm Mute
|<<>> Pickslide
************************************
comments
We did not receive enough feedback on this tab! Please rate:
print report bad tab
1 2 3 4 5
I want to post or [tab]
guest
You may want to rate the tab now too:
select rating
Please do not post tabs as comments. Select "correction" instead!