Oops, an error
Loading. Please wait.

Give Em Hell Kid Tab

version 3
version 3

Whole song

Interactive

3,366 views 1 this week
6 commentsread comments
1 2 3 4 5
x 10
add to favorites
launch autoscroll
font size
0
reset
how to read this tab
guitar tuner
Autoscroll
slow
fast
+/-
esc
set tempo
stop
Help us to improve Ultimate-Guitar.com Take our survey!
×
Author
My Chemical Romance Give em’ hell kid 
From the album: Three cheers for my sweet revenge
Track 2
Tabbed by Liam
Email: guitar_rocker_47@hotmail.com
Tuning: standard

Intro (Bass)
G|-----------------------------------|-----------------------------------|
D|-----------------------------------|-----------------------------------|
A|-7-7-7-7---------------------------|-7-7-7-7-------------------6-6-6-6-|
E|---------7-7-7-7--8-8-8-8--5-5-5-5-|---------7-7-7-7--8-8-8-8----------|

Guitar 1
E|-----------------------------------|-----------------------------------|
B|-----------------------------------|--x--------x---------x-------------|
G|-----------------------------------|--x--------x---------x-------------|
D|-----------------------------------|-----------------------------------|
A|-----------------------------------|-----------------------------------|
E|-----------------------------------|-----------------------------------|

e|--------------------------------------------------------------|
B|--------------------------------------12---10-------10--------|
G|---9b~--8b~-9b~-8b~-----9-12------9-12---------12-12----12----|
D|----------------------------12----------------------------12\-|
A|--------------------------------------------------------------|
E|--------------------------------------------------------------|

Verse 
e|---------------------------------|-----------------------------------|
B|---------------------------------|-----------------------------------|
G|-9-9-9-9---------5-5-5-5---------|-9-9-9-9---------5-5-5-5--8-8-8-8--|
D|-9-9-9-9-9-9-9-9-5-5-5-5-7-7-7-7-|-9-9-9-9-9-9-9-9-5-5-5-5--8-8-8-8--|
A|-7-7-7-7-9-9-9-9-3-3-3-3-7-7-7-7-|-7-7-7-7-9-9-9-9-3-3-3-3--6-6-6-6--|
E|---------7-7-7-7---------5-5-5-5-|---------7-7-7-7-------------------|

Chorus 1
e|----------------------------------------------------------------|
B|----------------------------------------------------------------|
G|-------------------------------8-8-8-8-8-8----------7-7-7-7-7-7-|
D|-5-5-5-5---------------2-2-2-2-8-8-8-8-8-8--5-5-5-5-7-7-7-7-7-7-|
A|-5-5-5-5--5-5-5-5-5-5--2-2-2-2-6-6-6-6-6-6--5-5-5-5-5-5-5-5-5-5-|
E|-3-3-3-3--2-2-2-2-2-2--0-0-0-0--------------3-3-3-3-------------|

e|---------------------------------------------------------------------|
B|---------------------------------------------------------------------|
G|---------5-5-5-5-5-5---9b--8b--9b--8b--9-8--9b--8b--9b--8-8-8-8-8-8--|
D|-2-2-2-2-5-5-5-5-5-5-------------------------------------------------|
A|-2-2-2-2-3-3-3-3-3-3-------------------------------------------------|
E|-0-0-0-0-------------------------------------------------------------|

Chorus 2
e|----------------------------------------------------------------|
B|----------------------------------------------------------------|
G|-------------------------------8-8-8-8-8-8----------7-7-7-7-7-7-|
D|-5-5-5-5---------------2-2-2-2-8-8-8-8-8-8--5-5-5-5-7-7-7-7-7-7-|
A|-5-5-5-5--5-5-5-5-5-5--2-2-2-2-6-6-6-6-6-6--5-5-5-5-5-5-5-5-5-5-|
E|-3-3-3-3--2-2-2-2-2-2--0-0-0-0--------------3-3-3-3-------------|

e|---------------------|
B|---------------------|
G|---------5-5-5-5-5-5-|
D|-2-2-2-2-5-5-5-5-5-5-|
A|-2-2-2-2-3-3-3-3-3-3-|
E|-0-0-0-0-------------|

Bridge
Guitar 1
e|---------------------------------------------------------------------|
B|---------------------------------------------------------------------|
G|-5-5-5-5-5-5-5-5--5-5-5-5-5-5-5-5---7-7-7-7-7-7-7-7--7-7-7-7-7-7-7-7-|
D|-5-5-5-5-5-5-5-5--5-5-5-5-5-5-5-5---7-7-7-7-7-7-7-7--7-7-7-7-7-7-7-7-|
A|-3-3-3-3-3-3-3-3--3-3-3-3-3-3-3-3---5-5-5-5-5-5-5-5--5-5-5-5-5-5-5-5-|
E|---------------------------------------------------------------------|

Guitar 2
e|---------------------------------------------------------------------|
B|---------------------------------------------------------------------|
G|-5-5-5-5-5-5-5-5--5-5-5-5-5-5-5-5---7-7-7-7-7-7-7-7--9-9-9-9-7-7-7-7-|
D|-x-x-x-x-x-x-x-x--x-x-x-x-x-x-x-x---x-x-x-x-x-x-x-x--x-x-x-x-x-x-x-x-|
A|-3-3-3-3-3-3-3-3--3-3-3-3-3-3-3-3---5-5-5-5-5-5-5-5--7-7-7-7-5-5-5-5-|
E|---------------------------------------------------------------------|

Guitar 1
e|---------------------------------------------------------------------|
B|---------------------------------------------------------------------|
G|-4-4-4-4-4-4-4-4--4-4-4-4-4-4-4-4------------------------------------|
D|-4-4-4-4-4-4-4-4--4-4-4-4-4-4-4-4---2-2-2-2-2-2-2-2--2-2-2-2-2-2-2-2-|
A|-2-2-2-2-2-2-2-2--2-2-2-2-2-2-2-2---2-2-2-2-2-2-2-2--2-2-2-2-2-2-2-2-|
E|------------------------------------0-0-0-0-0-0-0-0--0-0-0-0-0-0-0-0-|

Guitar 2
e|---------------------------------------------------------------------|
B|---------------------------------------------------------------------|
G|-4-4-4-4-4-4-4-4--4-4-4-4-4-4-4-4------------------------------------|
D|-x-x-x-x-x-x-x-x--x-x-x-x-x-x-x-x-----5-4--5/7\5b~-----5-4--5/7\5b~--|
A|-2-2-2-2-2-2-2-2--2-2-2-2-2-2-2-2------------------------------------|
E|---------------------------------------------------------------------|

Bridge part 2 
Guitar 1 (double time)
e|---------------------------------------------------------------------|
B|---------------------------------------------------------------------|
G|-5555555555555555--7777777777777777----------55555555--777777--7-7---|
D|-5555555555555555--7777777777777777----------55555555--777777--7-7---|
A|-3333333333333333--5555555555555555----------33333333--555555--5-5---|
E|---------------------------------------------------------------------|
PM                                             ****************

Guitar 2
e|---------------------------------------------------------------------|
B|---------------------------------------------------------------------|
G|-5555555555555555--7777777777777777----------------------------------|
D|-xxxxxxxxxxxxxxxx--xxxxxxxxxxxxxxxx----------------------------------|
A|-3333333333333333--5555555555555555---15b~~~~~~~~~~~~~~~~~(15)-------|
E|---------------------------------------------------------------------|

Outro
Guitar 1
e|-----------------------------------------------------------------------------------|
B|-5555-----------------5555-----------------5555-----------------5555---------------|
G|-4444-4444-5555-2222--4444-4444-5555-2222--4444-4444-5555-2222--4444-4444-5555-2222|
D|-2222-4444-5555-2222--2222-4444-5555-2222--2222-4444-5555-2222--2222-4444-5555-2222|
A|------2222-3333-0000-------2222-3333-0000-------2222-3333-0000-------2222-3333-0000|
E|-----------------------------------------------------------------------------------|

Guitar 2
e|--------------------------------------------7-5-3----7-5-3------7-5-3----7-5-3-----|
B|--------------------------------------------------5--------5----------5--------5-5b|
G|-----------------------9999-9999-99999999------------------------------------------|
D|-----------------------------------------------------------------------------------|
A|-----------------------------------------------------------------------------------|
E|-----------------------------------------------------------------------------------|

Order
Intro
Verse x2
Chorus 1
Verse x2
Chorus 2 x2
Bridge
Bridge part 2
Chorus 2 x2
Outro
Suggest correction
comments
print report bad tab
6 comments total. Showing first comments.
0 reply
Grinspoon-Guy 41 Feb 13, 2006 05:53 PM

hell ya man this is the best give em hell kid tab i could find man ur like an ultimate-guitar legend

0 reply
mcr_01_fan 697 Feb 14, 2006 12:06 PM

pretty good 5 stars *****

0 reply
100%guitarmad 489 May 24, 2007 04:10 PM

woot

guest
You may want to rate the tab now too:
select rating
Wanna post a correction for this tab? Suggest correction