Oops, an error
Loading. Please wait.

Guys Like Us Tab

477 views 1 this week
1 commentread comment
1 2 3 4 5
2 more votes to show rating
add to favorites
launch autoscroll
font size
0
reset
how to read this tab
guitar tuner
Autoscroll
slow
fast
+/-
esc
set tempo
stop
Help us to improve Ultimate-Guitar.com Take our survey!
×
Author
Difficulty
intermediate
You Know What They Do To Guys Like Us In Prison Tab by My Chemical Romance,
 www.Ultimate-Guitar.Com

                {*********************************************} 
                {*** Completely re-tabbed, including solo! ***}
                {*********************************************}

My Chemical Romance - You Know What They Do To Guys Like Us In Prison

From the album - "Three Cheers For Sweet Revenge"

Comments/corrections welcome: e-mail/MSN davidmhart1@hotmail.com

[1] = Guitar one - Frank
[2] = Guitar two - Ray lead
[3] = Guitar three - Ray (overdubbed)

|:| / = slide
|:| ~ = vibrato
|:| h = hammer on
|:| p = pull off
|:| * = natural harmonic
|:| b(n) = bend(to fret)
|:| r = release bend
|:| ^ = slight bend
|:| . = palm mute

---------------------------------|---------|---------------------------------
---------------------------------|- Intro -|---------------------------------
---------------------------------|---------|---------------------------------

>> Tone

	Guitar [1] - clean, with sustain
	

[1]
e|:|-------------------------------------------------|
B|:|-------------------------------------------------|
G|:|-33333333-8-8-8-8-8-8--88-77777777-8888--7777----|
D|:|-55555555-101010101010-88-77777777-7777--7777----|
A|:|-------------------------------------------------|
E|:|-------------------------------------------------|

    "In the middle of a gunfight...."


---------------------------------|---------|---------------------------------
---------------------------------|- Verse -|---------------------------------
---------------------------------|---------|---------------------------------

>> Tone

	Guitar [1] - clean, with sustain
	Guitar [2] - Distortion

[1]
e|:|-------------------------------------------------|
B|:|-------------------------------------------------|
G|:|-33333333-8-8-8-8-8-8--88-77777777-8888--7777----|
D|:|-55555555-101010101010-88-77777777-7777--7777----|x4
A|:|-------------------------------------------------|
E|:|-------------------------------------------------|

lead
e|:|-----------------------------------------------------------
B|:|-----0-----------------------------------------------------
G|:|-111---1111--333-6-4444--888-9-8---------4-4-6-4-4-3-3-3-3-
D|:|----------------------------------9-9-9--------------------
A|:|-----------------------------------------------------------|x3
E|:|-----------------------------------------------------------|
 | |  
 | | "Well they're never gonna get me..."


     "Say a prayer!"

<< Tone End

--------------------------------|----------|---------------------------------
--------------------------------|- Chorus -|---------------------------------
--------------------------------|----------|---------------------------------

>> Tone

	Guitar [1] - Distortion
	Guitar [2]lead - Distortion

[1+2]
e|:|----------------------------------------------------|
B|:|--------------4444----------------------------------|
G|:|----------55555555----------7777--/9--11111111-121212-|
D|:|-55555555-55555555-33333333-------------------------|
A|:|-55555555-33333333-33333333-5555--/7--9-9-9-9--101010-|
E|:|-33333333----------11111111-------------------------|

     "Now! But I cant..."
[1+2]
e|:|--------------------------------------------------------|
B|:|--------------4444--------------------------------------|
G|:|----------55555555----------7777--7-6-3---2-------------|
D|:|-55555555-55555555-33333333---------------2-------------|
A|:|-55555555-33333333-33333333-5555--5-3-1-----------------|
E|:|-33333333----------11111111-----------------------------|
 
    "Too much too late..."


---------------------------------|---------|---------------------------------
---------------------------------|- Verse -|---------------------------------
---------------------------------|---------|---------------------------------

>> Tone

	Guitar [1] - Distortion
	Guitar [2] - Distortion

[1]
e|:|--------------------------------------|
B|:|--------------------------------------|
G|:|----------555555-33----------77777777-|
D|:|-55555555-555555-33-33333333-77777777-|
A|:|-55555555-333333-11-33333333-55555555-|
E|:|-33333333-----------11111111----------|
 | | ........ ...... .. ........ ........

    
    "They all cheat at cards..."

[1]
e|:|-------------------------------------------------|
B|:|-------------------------------------------------|
G|:|----3----3----3----3-555555-33----------77777777-|
D|:|----5----5----5----5-555555-33-33333333-77777777-|
A|:|----5----5----5----5-333333-11-33333333-55555555-|
E|:|-33-3-33-3-33-3-33-3-----------11111111----------|
 | | ..   ..   ..   ..   ...... .. ....   


    "I miss my Mom! will they..."



--------------------------------|----------|---------------------------------
--------------------------------|- Chorus -|---------------------------------
--------------------------------|----------|---------------------------------

>> Tone

	Guitar [1] - Distortion
	Guitar [2] - Distortion

[1+2]
e|:|----------------------------------------------------|
B|:|--------------4444----------------------------------|
G|:|----------55555555----------7777--/9--11111111-121212-|
D|:|-55555555-55555555-33333333-------------------------|
A|:|-55555555-33333333-33333333-5555--/7--9-9-9-9--101010-|
E|:|-33333333----------11111111-------------------------|

     "Now! But I cant..."
[1+2]
e|:|--------------------------------------------------------|
B|:|--------------4444--------------------------------------|
G|:|----------55555555----------7777--7-6-3---2-------------|
D|:|-55555555-55555555-33333333---------------2-------------|
A|:|-55555555-33333333-33333333-5555--5-3-1-----------------|
E|:|-33333333----------11111111-----------------------------|
 
 
    "Too much too late..."

<< Tone End

------------------------------|-------------|--------------------------------
------------------------------|- Interlude -|--------------------------------
------------------------------|-------------|--------------------------------

>> Tone

	Guitar [1] - Distortion
	Guitar [2] - Distortion
	Guitar [3] - Clean

[1]
e|:|--------------------------------------|--|----|
B|:|--------------------------------------|--|----|
G|:|----------------------------777777777-|--|----|
D|:|----------55555555-77777777-777777777-|--|-5~-|
A|:|-55555555-33333333-77777777-555555555-|x2|-5~-|
E|:|-33333333----------55555555-----------|--|-3~-|
 | | ........ ........ ........ .........
 | |

 | |
e|:|-----------------------------------------------------------|-----------|
B|:|-----------------------------------------------------------|-----------|
G|:|-12-14-15151515151515-17171717171717-14141414-15151515-14~-|-12-15-14~-|
D|:|-----------------------------------------------------------|-----------|
A|:|-10-12-13131313131313-15151515151515-12121212-13131313-12~-|-10-13-12~-|
E|:|-----------------------------------------------------------|-----------|
 | |
[3]|
e|:|-10-------|--|-11-------|--|-15-------|--|-----|
B|:|----11----|--|----12----|--|----16----|--|-----|
G|:|-------10-|--|-------13-|--|-------15-|--|-15~-|
D|:|----------|--|----------|--|----------|--|-----|
A|:|----------|x5|----------|x5|----------|x5|-----|
E|:|----------|--|----------|--|----------|--|-----|

    "To your room...         ...why remember... you?"

<< Tone End

----------------------------------|--------|---------------------------------
----------------------------------|- Solo -|---------------------------------
----------------------------------|--------|---------------------------------

>> Tone

	Guitar [1] - Distortion
	Guitar [2] - Distortion, with Wah
	Guitar [3] - Distortion

[1]
e|:|-------------------------------------|
B|:|-------------------------------------|
G|:|----------88888888----------77777777-|
D|:|-55555555-88888888-77777777-77777777-|
A|:|-55555555-66666666-77777777-55555555-|x2
E|:|-33333333----------55555555----------|
 | |
[2]|
e|:|--------------------------------------------------------------------/
B|:|--------------------------------------------------------------------/
G|:|-5b(7)r5-----------5b(7)r5-----------5b(7)r5------------------------/
D|:|---------8-7-h8-5~---------8-7-5-3~----------8-7-5-4~-7-5-8-7-10-8~-/
A|:|--------------------------------------------------------------------/
E|:|--------------------------------------------------------------------
 | |
[3]|
e|:|--------------------------------------------------------------------/
B|:|--------------------------------------------------------------------/
G|:|--------------------------------------------------/3~-2-0-3-2-5--3~-/
D|:|--------------------------------------------------------------------/
A|:|--------------------------------------------------------------------/
E|:|--------------------------------------------------------------------/


[2]|
e|:|-------------------------------------------------------------------------/
B|:|-------------------------------------------------------------------------/
G|:|-------------------------------------------------------------------------/
D|:|-8~~~~~~~--8~~~8h10p8h10p8h10p8-8~~~~---~~~~ feedback ~~~~---------------/
A|:|-------------------------------------------------------------------------/
E|:|-------------------------------------------------------------------------/
[3]|
e|:|-------------------------------------------------------8h10p8------------/
B|:|------------------------------------------------8h10h11------01p10-8h10~-/
G|:|--------------------7h9h10-7h9h10-7h9h10/9h10h12-------------------------/
D|:|-8~~-8h10p8h10p8h10------------------------------------------------------/
A|:|-------------------------------------------------------------------------/
E|:|-------------------------------------------------------------------------/

[2]
e|:|-------------------------------------------------------------------------|
B|:|-------------------------------------------------------------------------|
G|:|-------------------------------------------------------------------------|
D|:|-8~~~~~~~---------~~~~---8~~~~ ----------------------------/17~~~~-16~~~~|
A|:|-------------------------------------------------------------------------|
E|:|-------------------------------------------------------------------------|
[3]|
e|:|---13---12---10------------------------------/10-12-13-15-17-18-19-21-21^|
B|:|-10---10---10--10-13-10-11-10-11-10--------------------------------------|
G|:|-----------------------------------12h14-10~-----------------------------|
D|:|-------------------------------------------------------------------------|
A|:|-------------------------------------------------------------------------|
E|:|-------------------------------------------------------------------------|


<< Tone End

---------------------------------|---------|---------------------------------
---------------------------------|- Outro -|---------------------------------
---------------------------------|---------|---------------------------------

>>Tone

	Guitar [1] - Clean (distortion as marked)
	Guitar [2] - Distortion
	Guitar [3] - Distortion

[1]                  |>> Distortion
e|:|-----------------|--------------------------------------------------/
B|:|-----------------|--------------------------------------------------/
G|:|-3-3-3-3-3-3-3-3-|-555-555-555--------------7777--/9--11111111-8888-/
D|:|-5-5-5-5-5-5-5-5-|-555-555-555--------------------------------------/
A|:|-----------------|-333-333-333--------------5555--/7--9-9-9-9--6666-/
E|:|-----------------|--------------------------------------------------/
[2]|
e|:|-----------------|--------------------------------------------------/
B|:|-----------------|-555-555-555-----------4*-------------------------/
G|:|-----------------|-555-555-555--4*----------7777--/9--11111111-8888-/
D|:|-----------------|-333-333-333--------5*----------------------------/
A|:|-----------------|--------------------------5555--/7--9-9-9-9--6666-/
E|:|-----------------|--------------------------------------------------/

   "Life is but a dream..."

[1]
e|:|--------------------------------------------------------/
B|:|--------------4444--------------------------------------/
G|:|----------55555555----------7777--/9--11111111-12121212-/
D|:|-55555555-55555555--------------------------------------/
A|:|-55555555-33333333--5555----------/7--9-9-9-9--10101010-/
E|:|-33333333-----------------------------------------------/
[2]|
e|:|--------------------------------------------------------/
B|:|-888/1012-888/1012-666/1012-----------------------------/
G|:|----------------------------7777--/9--11111111-12121212-/
D|:|-555/7-8--555/7-8--333/7-8------------------------------/
A|:|----------------------------5555--/7--9-9-9-9--10101010-/
E|:|--------------------------------------------------------/

    "Now, now now now...."



[1]
e|:|--------------------------------------|
B|:|--------------------------------------|
G|:|----------555555-------------77777777-|
D|:|-55555555-555555----33333333-77777777-|
A|:|-55555555-333333----33333333-55555555-|
E|:|-33333333-----------11111111----------|

[1]
e|:|----------------------------|
B|:|----------------------------|
G|:|----------------------------|
D|:|---5----5----5----5-------5-|
A|:|---5----5----5----5-------5-|
E|:|-333--333--333--333--3333-3-| slide off
 

<< End! Enjoy.
Suggest correction
Give kudos to tab author, rate the tab!
1 2 3 4 5
comments
print report bad tab
1 comment total.
0 reply
FranKLynn 20 May 31, 2008 12:12 AM

haha I didn't recognize the song title at first
good tab

guest
You may want to rate the tab now too:
select rating
Wanna post a correction for this tab? Suggest correction