Oops, an error
Loading. Please wait.

Hang Em High Tab

version 2
version 2

Whole song

Interactive

18,043 views 21 this week
16 commentsread comments
1 2 3 4 5
accurate
x 22
add to favorites
launch autoscroll
font size
0
reset
how to read this tab
guitar tuner
Tab Pro tools
  • play this tab
  • loop segment
  • change instrument
  • show fretboard
  • metronome
×
Best way to learn
"Hang Em High"
Autoscroll
slow
fast
+/-
esc
set tempo
stop
Contributor

------------------------
 Completely Re-tabbed!
------------------------


My Chemical Romance - Hang 'em High
From the album "Three Cheers For Sweet Revenge"

I had trouble trying to figure out the verses and intro on the other tab for this song,
so i decided to write one myself. 

Feel free to send comments/corrects to Mathamology@hotmail.com


|:| . - Palm mute
|:| h - Hammer on
|:| p - pull off
|:| * - harmonic (natural)
|:| / - slide
|:| x - mute string
|:| ~ - vibrato
|:| ^(-) - bend (to fret)
[1] - Guitar one
[2] - Guitar two


---------
- Intro -
---------


>>> Western/cowboy style intro. acoustics all round! >>>

[1]     
   e|:|--------------------------------------------------------|
   B|:|--------------------------------------------------------|
   G|:|---10-12-/14-12-10-9--9--/10-9~--10-12-/14-12-10--9-/10-|
   D|:|---12-14-/15-14-12-10-10-/12-10--12-14-/15-14-12--10/12-|
   A|:|--------------------------------------------------------|
   E|:|--------------------------------------------------------|
    | |
[2] | | Dm                  Am   C                E
   e|:|-1------------------------0----0----------------0-------|
   B|:|-3------------------------1----1----------------0-------|
   G|:|-2------------------------2----0----------------1-------|
   D|:|-0------------------------2----2----------------2-------|
   A|:|-------------------------------3----------------2-------|
   E|:|------------------------------------------------0-------|

>>> Electric >>>

[1]
   e|:|---------------------------------|
   B|:|---------------------------------|
   G|:|---------------------------------|
   D|:|-///-------------------------///-|
   A|:|-///--------Pickslide--------///-|
   E|:|-///-------------------------///-|
    | |
[2] | |
   e|:|---------------------------------|
   B|:|---------------------------------|
   G|:|---------------------------------|
   D|:|-7777/8/10/8/7/5/7-3~--7777/8888-|
   A|:|-------------------3~------------|
   E|:|-5555/6/8-/6/5/3/5-1~--5555/6666-|


-------------
- Verse One -
-------------

     
[1]
e|:|---------------------------------------------------------|
B|:|---------------------------------------------------------|
G|:|------2-3----3-2-------2-3----3-2-------2-3----3-2-------|
D|:|-xxxx-5-5-xx-5-5-xxxxx-5-5-xx-5-5-xxxxx-5-5-xx-5-5-xxxxx-|
A|:|-xxxx-5-5-xx-5-5-xxxxx-5-5-xx-5-5-xxxxx-5-5-xx-5-5-xxxxx-|
E|:|-xxxx-----xx-----xxxxx-----xx-----xxxxx-----xx-----xxxxx-|
 | |                                                 
 | |                                                                 
[2]|                                                 
e|:|---------------------------------------------------------|
B|:|------10~----------------------------6~------------------|
G|:|---------------------------------------------------------|
D|:|---------------------------------------------------------|
A|:|---------------------------------------------------------|
E|:|---------------------------------------------------------|

   "... wait until it fades to black..."

[1]
e|:|------------------|
B|:|------------------|
G|:|------------------|
D|:|-5^(7)r5-3-2~-----|
A|:|--------------4~~-|
E|:|------------------|
 | |
[2]|
e|:|------------------|
B|:|------------------|
G|:|------------------|
D|:|-2^(3)r2-3-5~-7~~-|
A|:|------------------|
E|:|------------------|

   " ... got something to say..."


[1]
e|:|--------------------------------------------------------|
B|:|----3----3----3----3----3----3----3----3----------------|
G|:|----3----3----3----3----3----3----3----3----------------|
D|:|-xx-5-xx-5-xx-5-xx-5-xx-5-xx-5-xx-5-xx-5--33333333-7777-|
A|:|-xx-5-xx-5-xx-5-xx-5-xx-5-xx-5-xx-5-xx-5--33333333-7777-|
E|:|-xx---xx---xx---xx---xx---xx---xx---xx----11111111-5555-|
 | |
 | |
[2]|
e|:|--------------------------------------------------------|
B|:|--------------------------------------------------------|
G|:|----7----7----7----7----7----7----7----7----------------|
D|:|-------------------------------------------/---------/--|
A|:|----5----5----5----5----5----5----5----5---/Pickslide/--|
E|:|-------------------------------------------/---------/--|

   "... grab your six gun from your back..."


[1]
e|:|-----------|
B|:|-----------|
G|:|-----------|
D|:|-7777------|
A|:|-7777------|
E|:|-5555------|
 | |
[2]|
e|:|-----------|
B|:|-----------|
G|:|-----------|
D|:|-3-5^(7)~~-|
A|:|-----------|
E|:|-----------|

    "... in spades"
    


--------------
- Pre Chorus -
--------------


    
[1]
e|:|------------------------------------|--------------------|
B|:|------------------------------------|--------------------|
G|:|-33333333-66666666-77777777---------|-33333333-22222222--|
D|:|-33333333-66666666-77777777-33333333|-33333333-22222222--|
A|:|-11111111-44444444-55555555-33333333|-11111111-00000000--|
E|:|----------------------------11111111|--------------------|
 | |                                    |
[2]|                                    |
e|:|------------------------------------|--------------------|
B|:|------------------------------------|--------------------|
G|:|-----------------------------/15-14-|-12-10-9-10-6-7-6---|
D|:|------------------------------------|------------------7-|
A|:|-----------------------------/13-12-|-10-8--7-8--4-5-4---|
E|:|------------------------------------|------------------5-|
 
   "... shotgun sinners..."



-------------
- Verse Two -
-------------



[1]
e|:|---------------------------------------------------------|
B|:|---------------------------------------------------------|
G|:|------2-3----3-2-------2-3----3-2-------2-3----3-2-------|
D|:|-xxxx-5-5-xx-5-5-xxxxx-5-5-xx-5-5-xxxxx-5-5-xx-5-5-xxxxx-|
A|:|-xxxx-5-5-xx-5-5-xxxxx-5-5-xx-5-5-xxxxx-5-5-xx-5-5-xxxxx-|
E|:|-xxxx-----xx-----xxxxx-----xx-----xxxxx-----xx-----xxxxx-|
 | |                                                 
 | |
[2]|-[Alternate picking] 
e|:|---------------------------------------------------------|
B|:|---------------------------------------------------------|
G|:|-1414---------------1414--------------1414---------------|
D|:|------141415151212------141415151212-------141415151212--|
A|:|---------------------------------------------------------|
E|:|---------------------------------------------------------|
  
   "... after all is said and done..."



[1]
e|:|---------------------|
B|:|---------------------|
G|:|---------------------|
D|:|-5^(7)r5-3-2~--------|
A|:|--------------4~~----|
E|:|---------------------|
 | |
[2]|
e|:|---------------------|
B|:|---------------------|
G|:|---------------12-14-|
D|:|-14^(15)r14-15-------|
A|:|---------------------|
E|:|---------------------|

   "... nothing to say"
 


[1]
e|:|--------------------------------------------------------|
B|:|----3----3----3----3----3----3----3----3----------------|
G|:|----3----3----3----3----3----3----3----3----------------|
D|:|-xx-5-xx-5-xx-5-xx-5-xx-5-xx-5-xx-5-xx-5--33333333-7777-|
A|:|-xx-5-xx-5-xx-5-xx-5-xx-5-xx-5-xx-5-xx-5--33333333-7777-|
E|:|-xx---xx---xx---xx---xx---xx---xx---xx----11111111-5555-|
 | |
 | |
[2]|
e|:|--------------------------------------------------------|
B|:|--------------------------------------------------------|
G|:|----7----7----7----7----7----7----7----7----------------|
D|:|-------------------------------------------/---------/--|
A|:|----5----5----5----5----5----5----5----5---/Pickslide/--|
E|:|-------------------------------------------/---------/--|

   "... the angels just cut out her tongue..."



[1]
e|:|-----------|
B|:|-----------|
G|:|-----------|
D|:|-7777------|
A|:|-7777------|
E|:|-5555------|
 | |
[2]|
e|:|-----------|
B|:|-----------|
G|:|-----------|
D|:|-3-5^(7)~~-|
A|:|-----------|
E|:|-----------|

   "... right in the brain"



--------------
- Pre Chorus -
--------------


 
[1]
e|:|------------------------------------|--------------------|
B|:|------------------------------------|--------------------|
G|:|-33333333-66666666-77777777---------|-33333333-22222222--|
D|:|-33333333-66666666-77777777-33333333|-33333333-22222222--|
A|:|-11111111-44444444-55555555-33333333|-11111111-00000000--|
E|:|----------------------------11111111|--------------------|
 | |                                    |
[2]|                                    |
e|:|------------------------------------|--------------------|
B|:|------------------------------------|--------------------|
G|:|-----------------------------/15-14-|-12-10-9-10-6-7-6---|
D|:|------------------------------------|------------------7-|
A|:|-----------------------------/13-12-|-10-8--7-8--4-5-4---|
E|:|------------------------------------|------------------5-|

   "... mass convulsions..."



----------
- Chorus -
----------


      "... dont stop, if i fall..."
[1]
e|:|-----------------------------|-----------------------------------------|
B|:|-----------------------------|-----------------------------------------|
G|:|77777/1010101010-------------|77777/1010101010-121212121212121212121212|
D|:|77777/1010101010-888888888888|77777/1010101010-121212121212121212121212|
A|:|55555/8-8-8-8-8--888888888888|55555/8-8-8-8-8--101010101010101010101010|
E|:|-----------------666666666666|-----------------------------------------|
 | |                             |x 2
[2]|                             |
e|:|-----------------------------/-----------------------------------------|F
B|:|-----------------------------/-----------------------------------------|I
G|:|77777/1010101010-------------/77777/1010101010-12121212/1010/999999----|R
D|:|77777/1010101010-888888888888/77777/1010101010-------------------------|S
A|:|55555/8-8-8-8-8--888888888888/55555/8-8-8-8-8--10101010/8-8-/777777----|T
E|:|-----------------666666666666/-----------------------------------------|.
                                 /
                                 /-----------------------------------------|S
                                 /-----------------------------------------|E
                                 /777777/10101010-12121212/1010/1414141414-|C
                                 /777777/10101010--------------------------|O
                                 /555555/8-8-8-8--10101010/8-8-/1212121212-|N
                                 /-----------------------------------------|D



---------------
- Verse three -
---------------


      
[1]
e|:|---------------------------------------------------------------------|
B|:|-/15-/15-/15-/17-/18-/18-/18-/18-/18-/18-/18-/18-/18-/18-/18-/18-/18-|
G|:|---------------------------------------------------------------------|
D|:|---------------------------------------------------------------------|
A|:|---------------------------------------------------------------------|
E|:|---------------------------------------------------------------------|
 | |
[2]|-[Alternate picking]
e|:|---------------------------------------------------------------------|
B|:|---------------------------------------------------------------------|
G|:|---------------------------------------------------------------------|
D|:|-12121212-1414-1515-1414-1111-1414-12121212-1414-1515-1414-1111-1414-|
A|:|---------------------------------------------------------------------|
E|:|---------------------------------------------------------------------|

      

[1]
e|:|-----------------------------------------------------------------------|
B|:|-----------------------------------------------------------------------|
G|:|-----------------------------------------------------------------------|
D|:|-----------------------------------------------------------------------|
A|:|--5~--/5--3~-----------------------------------------------------------|
E|:|--------------6--5--3--5--5h6p5~--3--3h5p3/1--0--1--3--1~--1--0--0/5~--|
 | |
[2]|       
e|:|-----------------------------------------------------------------------|
B|:|-----------------------------------------------------------------------|
G|:|-----------------------------------------------------------------------|
D|:|--3~--/3--2~-----------------------------------------------------5/7~--|
A|:|--------------5--4--2--4--4h5p4~--2--2h4p2/5~-5~----5~-----5~----------|
E|:|-----------------------------------------------------------------------|

   "... She wont stop me put it down..."



[1]
e|:|-------------|----------------------|
B|:|-------------|----------------------|
G|:|-------------|----------------------|
D|:|-/---------/-|----------------------|
A|:|-/pickslide/-|----------------------|
E|:|-/---------/-|----------------------|
[2]|             |
e|:|-------------|----------------------|--|
B|:|-------------|----------------------|--|
G|:|-------------|-14/15/17/15/14/10/12-|--|
D|:|-------------|----------------------|--|
A|:|-------------|-12/13/15/13/12/-8/10-|x2|
E|:|-------------|----------------------|--|
                      x8/x4/x4/x2/x8/x4/x4

   "... She wont stop me put it down..."



---------
- Outro -
---------



[1]
e|:|-----------------------------|-----------------------------------------|
B|:|-----------------------------|-----------------------------------------|
G|:|77777/1010101010-------------|77777/1010101010-121212121212121212121212|
D|:|77777/1010101010-888888888888|77777/1010101010-121212121212121212121212|
A|:|55555/8-8-8-8-8--888888888888|55555/8-8-8-8-8--101010101010101010101010|
E|:|-----------------666666666666|-----------------------------------------|
 | |                             | x 4
[2]|                             |
e|:|-----------------------------/----------------------------------------|F
B|:|-----------------------------/----------------------------------------|I
G|:|-----------------------------/77777/1010101010-12121212/1010/999999---|R 
D|:|-----------------888888888888/77777/1010101010------------------------|S
A|:|-----------------888888888888/55555/8-8-8-8-8--10101010/8-8-/777777---|T
E|:|-----------------666666666666/----------------------------------------|.
 / /Second time [2] is not silent/ x 2                                              
e|:|-----------------------------/----------------------------------------|S
B|:|-----------------------------/----------------------------------------|E
G|:|77777/1010101010-------------/777777/10101010-12121212/1010/1414141414|C
D|:|77777/1010101010-888888888888/777777/10101010-------------------------|O
A|:|55555/8-8-8-8-8--888888888888/555555/8-8-8-8--10101010/8-8-/1212121212|N
E|:|-----------------666666666666/----------------------------------------|D
                                    x 2


       "... dont stop if i fall..."


[1]-[alternate pick chords]
e|:|-----------------|-------------|
B|:|-----------------|-------------|
G|:|-7^--------------|-0-----------|
D|:|-7^--------------|-0-----------|
A|:|-5^--------------|-0-----------|
E|:|-----------------|-------------|
 | |                 |
[2]|                 |   
e|:|-----------------|-------------|
B|:|-----------------|-------------|
G|:|--9/16-12/18-14/-|-4*-5*----3*-|
D|:|-----------------|-------5*----|
A|:|--7/14-10/16-12/-|-------------|
E|:|-----------------|-------------|
comments
print report bad tab
16 comments total. Showing first comments.
+1 reply
MCRrocks wrote on June 9 2005, 12:00 am

Excellent tabb!! five stars! (much better than that other guys tab no offence).

0 reply
Mathamology wrote on June 12 2005, 12:00 am

Quick correction. Guitar [2] at "...after all is said and done..." should be:

e|:|---------------------------------------------------|
B|:|---------------------------------------------------|
G|:|------------14-----------14-----------14-----------|
D|:|---------------14-15-12~----14-15-12-----14-15-12~-|
A|:|---------------------------------------------------|
E|:|---------------------------------------------------|

Sorry about that!

0 reply
flyingskull wrote on September 24 2005, 02:43 pm

COOL>prOps

I want to post or [tab]
guest
You may want to rate the tab now too:
select rating
Please do not post tabs as comments. Select "correction" instead!